Oops, an error
Loading. Please wait.

Puparia Tab

712 views 1 this week
no commentswrite comment
1 2 3 4 5
please rate
add to favorites
launch autoscroll
font size
0
reset
how to read this tab
guitar tuner
Tab Pro tools
  • play this tab
  • loop segment
  • change instrument
  • show fretboard
  • metronome
×
Best way to learn
"Puparia"
Autoscroll
slow
fast
+/-
esc
set tempo
stop
Contributor
Puparia - Johnny Truant
Album : The Repercussions of A Badly Planned Suicide
http://www.johnnytruant.co.uk

Tuning - (low to high)
guitar 1 - E A D G B E
guitar 2 - C G C F A D

GUITAR 1
Opening riff
|----------------------------------------------------------------------|
|----------------------------------------------------------------------|
|----------------------------------------------------------------------|
|----------------------------------------------------------------------|
|-------11------10-------8-------6----------5--------6-------5---------|
|8------------------------------------6----------------------------6---|

-----------------------------------------------------------------------|
-----------------------------------------------------------------------|
-----------------------------------------------------------------------|
-----------------------------------------------------------------------|
--------11------10-------8-------6----------5-------6---5---5----------|
8-------------------------------------6-------------------6---6--------|

Second Riff
|-------------------------------------------------------------------------|
|-------------------------------------------------------------------------|
|-------------------------------------------------------------------------|
|-------------------------------------------------------------------------|
|------11--------10--------8--------6-------5---------6--------5----------|
|8-8-8----8-8-8-----8-8-8----8-8-8----6-6-6----6-6-6----6-6-6----6-6-6-6--|
 * * *    * * *     * * *    * * *    * * *    * * *    * * *    * * * *
--------------------------------------------------------------------------|
--------------------------------------------------------------------------|
--------------------------------------------------------------------------|
--------------------------------------------------------------------------|
--------11--------10--------8--------6--------5-------6---------8---------|
-8-8-8-----8-8-8-----8-8-8----8-8-8----6-6-6----6-6-6----6-6-6----6-6-6-6-|
 * * *     * * *     * * *    * * *    * * *    * * *    * * *    * * * *

Third Riff
|-------------------------------------------------------------------------|
|-------------------------------------------------------------------------|
|-------------------------------------------------------------------------|
|-------------------------------------------------------------------------|
|------11-10-------11-8-------6----5---------8-5-------8-5-----6-----5----|
|--8------------------------------------6---------------------------------|

|--------------------------------------------------------------------------|
|--------------------------------------------------------------------------|
|--------------------------------------------------------------------------|
|--------------------------------------------------------------------------|
|--------------------------------------------------------------------------|
|8-8-8-8-8-8-8-8-8-8-8-8-8-8-8-8-8-8-8-8-8-8-8-8-8-8-8-8-8-8-8-8-8-8-8-8-8-|
 * * * * * * * * * * * * * * * * * * * * * * * * * * * * * * * * * * * * *

Solo
|--------------------------------------------------------------------------|
|----15------16-----18-----20-----22-------------0--15--0--15--0--15--0----|
|-----X8------X4-----X4-----X2-----X6---------0----------------------------|
|----12------13-----15-----17-----19---19\---------------------------------|
|--------------------------------------------------------------------------|
|--------------------------------------------------------------------------|

|--------------------------------------------------------------------------|
|----15------16-----18-----20-----22-------------0--15--0--15--17----------|
|-----X8------X4-----X4-----X2-----X6---------0--------------------15~~s\--|
|----12------13-----15-----17-----19---19\---------------------------------|
|--------------------------------------------------------------------------|
|--------------------------------------------------------------------------|

|-----------------------------------------------------------------19--19s\-|
|----15------16-----18-----20-----22-------------0--15--0--15--17---17-----|
|-----X8------X4-----X4-----X2-----X6---------0----------------------------|
|----12------13-----15-----17----19----19\---------------------------------|
|--------------------------------------------------------------------------|
|--------------------------------------------------------------------------|

|--------------------------------------------------------------------------|
|----15------16-----18-----20-----22-------------0--7--0-------------------|
|-----X8------X4-----X4-----X2-----X6---------0----------------------------|
|----12------13-----15-----17-----19---19\---------------------------------|
|--------------------------------------------------------------------------|
|-----------------------------------------------------------10--8~~~~~~----|

GUITAR 2
Riff 1
|-------------------------------------------------------------|
|-------------------------------------------------------------|
|-------------------------------------------------------------|
|-------------------------------------------------------------|
|2-2-2-2-2-2-2-2-2-2-2-2-2-2-2-0-0-0-0-0-0-0-0-0-0-0-0-0-0-0--|
|2-2-2-2-2-2-2-2-2-2-2-2-2-2-2-0-0-0-0-0-0-0-0-0-0-0-0-0-0-0--|
 * * * * * * * * * * * * * * * * * * * * * * * * * * * * * *
-----------------------------------------------------|
-----12b(14)r(13)b(14)-----------12b(14)r(13)b(14)---|
-----------------------------------------------------|
-0---------------------------0-----------------------|
-0---------------------------0-----------------------|
-0---------------------------0-----------------------|

Riff 3
|--------------------------------------------------------------------------|
|--------------------------------------------------------------------------|
|--------------------------------------------------------------------------|
|--------------------------------------------------------------------------|
|2-2-2-2-2-2-2-2-2-2-2---6s/8-6s\0----0-0-0-0-0-0-0-0-0-0-0---6p15--6p5h6--|
|2-2-2-2-2-2-2-2-2-2-2----------------0-0-0-0-0-0-0-0-0-0-0----------------|
 * * * * * * * * * * *                * * * * * * * * * * *

Octave Solo
|------------------------------------------------------------|
|------------------------------------------------------------|
|------------------------------------------------------------|
|------------------------------------------------------------|
|2-2-2-2-2-2-2-2-2-2-2-2-2-2-2-0-0-0-0-0-0-0-0-0-0-0-0-0-0-0-|
|2-2-2-2-2-2-2-2-2-2-2-2-2-2-2-0-0-0-0-0-0-0-0-0-0-0-0-0-0-0-|
 * * * * * * * * * * * * * * * * * * * * * * * * * * * * * *

-----------------------------------|
-----15------13------15------13----|
------x16-----x16-----x16-----x16--|
-----12------10------12------10----|
-----------------------------------|
-----------------------------------|

|---------------------------------------------|
|----15-----16-----18-----20-----22-----------|
|-----X8-----X4-----X4-----X2-----X6----------|
|----12-----13-----15-----17-----19------19\--|
|---------------------------------------------|
|---------------------------------------------|

-------------------------------------------------------------|
-------------------------------------------------------------|
-------------------------------------------------------------|
-------------------------------------------------------------|
-2-2-2-2-2-2-2-2-2-2-2-2-2-2-2-0-0-0-0-0-0-0-0-0-0-0-0-0-0-0-|
-2-2-2-2-2-2-2-2-2-2-2-2-2-2-2-0-0-0-0-0-0-0-0-0-0-0-0-0-0-0-|
 * * * * * * * * * * * * * * * * * * * * * * * * * * * * * *

|-----------------------------------------------------|
|-----12b(14)r(13)b(14)-----------12b(14)r(13)b(14)---|
|-----------------------------------------------------|
|-0---------------------------0-----------------------|
|-0---------------------------0-----------------------|
|-0---------------------------0-----------------------|

Outro
|----------------|--------13----13----14--14s\12----|--13-----12---------|
|----------------|----13----------------------------|-----\13-----\12\---|
|----------------|--0--------12----12---------------|--------------------|
|----------------|----------------------------------|--------------------|
|----------------|----------------------------------|--------------------|
|8--8s/10b11--6--|----------------------------------|--------------------|
comments
We did not receive enough feedback on this tab! Please rate:
print report bad tab
1 2 3 4 5
I want to post or [tab]
guest
You may want to rate the tab now too:
select rating
Please do not post tabs as comments. Select "correction" instead!