Oops, an error
Loading. Please wait.

Annie tab

version 2
version 2

Whole song

2,168 views 27 this week
2 commentsread comments
1 2 3 4 5
x 8
add to favorites
×
Save as Personal and add changes to this tab that will be seen only by you. Learn more ›
×
You can save this tab as Personal to edit and correct it or add notes. All changes will be seen only by you. Learn more »
launch autoscroll
font size
0
reset
how to read this tab
guitar tuner
edit
Autoscroll
slow
fast
+/-
esc
set tempo
stop
[Intro]

e|---------------------------------------------------------------------------|
B|---0h1-1p0---0---0---0h1-1p0---0---0---0h1-1p0---0---0---0h1-1p0---0---0---|
G|---0---0-----0---0---0---0-----0---0---0---0-----0---0---0---0-----0---0---|
D|---0h2-2p0---0---0---0h2-2p0---0---0---0h2-2p0---0---0---0h2-2p0---0---0---|
A|---------------------------------------------------------------------------|
E|-3---------3---3---3---------3---3---3---------3---3---3---------3---3-----| 


[Verse] x2

e|---------------------------------------------------------------------------|
B|---0h1-1p0---0---0---0h1-1p0---0---0---0h1-1p0---0---0---0h1-1p0---0---0---|
G|---0---0-----0---0---0---0-----0---0---0---0-----0---0---0---0-----0---0---|
D|---0h2-2p0---0---0---0h2-2p0---0---0---0h2-2p0---0---0---0h2-2p0---0---0---|
A|---------------------------------------------------------------------------|
E|-3---------3---3---3---------3---3---3---------3---3---3---------3---3-----|

e|---------------------------------------------------------------------------|
B|---3---3-----3---3---3---3-----0---0---0h1-1p0---0---0---0h1-1p0---0---0---|
G|---0---0-----0---0---0---0-----0---0---0---0-----0---0---0---0-----0---0---|
D|---0h2-2p0---0---0---0h2-2p0---0---0---0h2-2p0---0---0---0h2-2p0---0---0---|
A|-3---------3---3---3---------3---3-----------------------------------------|
E|-------------------------------------3---------3---3---3---------3---3-----|

e|---------------------------------------------------------------------------|
B|---1---1---1---1---1---1---1---1-------0h1-1p0---0---0---0h1-1p0---0---0---|
G|---2---2---2---2---2---2---2---2-------0---0-----0---0---0---0-----0---0---|
D|---2---2---2---2---2---2---2---2-------0h2-2p0---0---0---0h2-2p0---0---0---|
A|-0---0---0---0---0---0---0---0---------------------------------------------|
E|-------------------------------------3---------3---3---3---------3---3-----| 


[Chorus]

e|---------------------------------------------------------------------------|
B|---1---1---1---1---0---0---0---0---1---1---1---1---0---0---0---0-----------|
G|---2---2---2---2---2---2---2---2---2---2---2---2---2---2---2---2-----------|
D|---2---2---2---2---2---2---2---2---2---2---2---2---2---2---2---2-----------|
A|-0---0---0---0-------------------0---0---0---0-----------------------------|
E|-----------------0---0---0---0-------------------0---0---0---0-------------|

e|---------------------------------------------------------------------------|
B|---1---1---1---1---0---0---0---0-------0h1-1p0---0---0---0h1-1p0---0---0---|
G|---2---2---2---2---2---2---0---0-------0---0-----0---0---0---0-----0---0---|
D|---2---2---2---2---2---2---0---0-------0h2-2p0---0---0---0h2-2p0---0---0---|
A|-0---0---0---0-------------------------------------------------------------|
E|-----------------0---0---2---2-------3---------3---3---3---------3---3-----|


[Verse] 

e|---------------------------------------------------------------------------|
B|---0h1-1p0---0---0---0h1-1p0---0---0---0h1-1p0---0---0---0h1-1p0---0---0---|
G|---0---0-----0---0---0---0-----0---0---0---0-----0---0---0---0-----0---0---|
D|---0h2-2p0---0---0---0h2-2p0---0---0---0h2-2p0---0---0---0h2-2p0---0---0---|
A|---------------------------------------------------------------------------|
E|-3---------3---3---3---------3---3---3---------3---3---3---------3---3-----|

e|---------------------------------------------------------------------------|
B|---3---3-----3---3---3---3-----0---0---0h1-1p0---0---0---0h1-1p0---0---0---|
G|---0---0-----0---0---0---0-----0---0---0---0-----0---0---0---0-----0---0---|
D|---0h2-2p0---0---0---0h2-2p0---0---0---0h2-2p0---0---0---0h2-2p0---0---0---|
A|-3---------3---3---3---------3---3-----------------------------------------|
E|-------------------------------------3---------3---3---3---------3---3-----|

e|---------------------------------------------------------------------------|
B|---1---1---1---1---1---1---1---1-------0h1-1p0---0---0---0h1-1p0---0---0---|
G|---2---2---2---2---2---2---2---2-------0---0-----0---0---0---0-----0---0---|
D|---2---2---2---2---2---2---2---2-------0h2-2p0---0---0---0h2-2p0---0---0---|
A|-0---0---0---0---0---0---0---0---------------------------------------------|
E|-------------------------------------3---------3---3---3---------3---3-----| 


[Chorus]

e|---------------------------------------------------------------------------|
B|---1---1---1---1---0---0---0---0---1---1---1---1---0---0---0---0-----------|
G|---2---2---2---2---2---2---2---2---2---2---2---2---2---2---2---2-----------|
D|---2---2---2---2---2---2---2---2---2---2---2---2---2---2---2---2-----------|
A|-0---0---0---0-------------------0---0---0---0-----------------------------|
E|-----------------0---0---0---0-------------------0---0---0---0-------------|

e|---------------------------------------------------------------------------|
B|---1---1---1---1---0---0---0---0-------0h1-1p0---0---0---0h1-1p0---0---0---|
G|---2---2---2---2---2---2---0---0-------0---0-----0---0---0---0-----0---0---|
D|---2---2---2---2---2---2---0---0-------0h2-2p0---0---0---0h2-2p0---0---0---|
A|-0---0---0---0-------------------------------------------------------------|
E|-----------------0---0---2---2-------3---------3---3---3---------3---3-----|


[Middle]

e|---------------------------------------------------------------------------|
B|---0---0---0---0---0---0---0---0-------0---0---0---0---0h1-1p0---0---0-----|
G|---0---0---0---0---0---0---0---0-------0---0---0---0---0---0-----0---0-----|
D|---0---0---0---0---0---0---0---0-------0---0---0---0---0h2-2p0---0---0-----|
A|---------------------------------------------------------------------------|
E|-3---3---3---3---3---3---3---3-------3---3---3---3---3---3-----3---3-------|

e|---------------------------------------------------------------------------|
B|---3---3-----3---3---3---3-----0---0---0h1-1p0---0---0---0h1-1p0---0---0---|
G|---0---0-----0---0---0---0-----0---0---0---0-----0---0---0---0-----0---0---|
D|---0h2-2p0---0---0---0h2-2p0---0---0---0h2-2p0---0---0---0h2-2p0---0---0---|
A|-3---------3---3---3---------3---3-----------------------------------------|
E|-------------------------------------3---------3---3---3---------3---3-----|

e|---------------------------------------------------------------------------|
B|---1---1---1---1---1---1---1---1-------0h1-1p0---0---0---0h1-1p0---0---0---|
G|---2---2---2---2---2---2---2---2-------0---0-----0---0---0---0-----0---0---|
D|---2---2---2---2---2---2---2---2-------0h2-2p0---0---0---0h2-2p0---0---0---|
A|-0---0---0---0---0---0---0---0---------------------------------------------|
E|-------------------------------------3---------3---3---3---------3---3-----|

e|---------------------------------------------------------------------------|
B|---1---1---1---1---1---1---1---1-------0h1-1p0---0---0---0h1-1p0---0---0---|
G|---2---2---2---2---2---2---2---2-------0---0-----0---0---0---0-----0---0---|
D|---2---2---2---2---2---2---2---2-------0h2-2p0---0---0---0h2-2p0---0---0---|
A|-0---0---0---0---0---0---0---0---------------------------------------------|
E|-------------------------------------3---------3---3---3---------3---3-----|


[Chorus]

e|---------------------------------------------------------------------------|
B|---1---1---1---1---0---0---0---0---1---1---1---1---0---0---0---0-----------|
G|---2---2---2---2---2---2---2---2---2---2---2---2---2---2---2---2-----------|
D|---2---2---2---2---2---2---2---2---2---2---2---2---2---2---2---2-----------|
A|-0---0---0---0-------------------0---0---0---0-----------------------------|
E|-----------------0---0---0---0-------------------0---0---0---0-------------|

e|---------------------------------------------------------------------------|
B|---1---1---1---1---0---0---0---0-------0h1-1p0---0---0---0h1-1p0---0---0---|
G|---2---2---2---2---2---2---0---0-------0---0-----0---0---0---0-----0---0---|
D|---2---2---2---2---2---2---0---0-------0h2-2p0---0---0---0h2-2p0---0---0---|
A|-0---0---0---0-------------------------------------------------------------|
E|-----------------0---0---2---2-------3---------3---3---3---------3---3-----|


[Final Verse]

e|---------------------------------------------------------------------------|
B|---0h1-1p0---0---0---0h1-1p0---0---0---0---0---0---0---0---0---0---0-------|
G|---0---0-----0---0---0---0-----0---0---0---0---0---0---0---0---0---0-------|
D|---0h2-2p0---0---0---0h2-2p0---0---0---0---0---0---0---0---0---0---0-------|
A|---------------------------------------------------------------------------|
E|-3---------3---3---3---------3---3---3---3---3---3---3---3---3---3---------| 


[Outro]

e|-------------------------------------------------------------------3-------|
B|---0---0---0---0---0---0---0---0-------------------------0---0---0-0-------|
G|---0---0---0---0---0---0---0---0-------------------------0---0---0-0-------|
D|---0---0---0---0---0---0---0---0-------------------------0---0---0-0-------|
A|-------------------------------------------------------------------x-------|
E|-3---3---3---3---3---3---3---3--------3---3---3---3---3---3---3----3-------| 



************************************
| h   Hammer-on
| p   Pull-off
************************************
Suggest correction
Creating personal tab
Creating personal tab
You can edit any tab online and save it as your Personal.

You can edit, replace or remove any tab part or add personal notes – all changes will be seen only by you.

Personal tabs can be accessed anytime from any device, even offline.
Learn more »
comments
print report bad tab
2 comments total.
0 reply
bootytraps 10 Apr 16, 2016 02:19 AM

As far as I can tell, tis tab is perfect! thx

0 reply
ElmoChaline 10 Apr 19, 2016 12:11 AM

WOW!!!!!!!!!!!!!!!!!!!!!!!!!!!!!!!!!!!!

guest
You may want to rate the tab now too:
select rating
Wanna post a correction for this tab? Suggest correction