Oops, an error
Loading. Please wait.

Take The World tab

667 views 57 this week
no commentswrite comment
1 2 3 4 5
3 more votes to show rating
add to favorites
×
Save as Personal and add changes to this tab that will be seen only by you. Learn more ›
×
You can save this tab as Personal to edit and correct it or add notes. All changes will be seen only by you. Learn more »
launch autoscroll
font size
0
reset
how to read this tab
guitar tuner
edit
Autoscroll
slow
fast
+/-
esc
set tempo
stop
Author
Difficulty
About this tab version
This is the first tab for this song, and the only one that explains the bridge. This is a very simple version of the song, so contributors are welcome to add to it and make it better. Was this info helpful? Yes No
There are two ways of doing this song. 1 is slightly easier than the other. I'll put the better and harder way
 first, and then the easier way on the line right below it. The easier way has a capo on 7.
By the way, anything in parenthesis is optional. It sounds better with it though. If you don't play that note,
don't play anything on that string for that chord.
This song is my first tab, and this song is quite diffcult to tab because the guitar is crowded out by many
other instruments. So please correct me.

[The intro and verse are like this]
e|---------------------|-----------------------------------------------------|
B|---------------------|-----------------------------------------------------|
G|-10------------10----|---10------------10----------------------------------|
D|----------7----------|-----------7-----------------------------------------| Better way
A|-----8------------8--|------8------------8---------------------------------|
E|---------------------|-----------------------------------------------------|
  The final 10-8 ^^^^ is in a single beat^^^^ here too

e|---------------------|-----------------------------------------------------|
B|---------------------|-----------------------------------------------------|
G|-3--------------3----|---3-------------3-----------------------------------|
D|----------0----------|-----------0-----------------------------------------| Easier way
A|-----1------------1--|------1------------1---------------------------------|
E|---------------------|-----------------------------------------------------|
This time, the 3-1 ^ is in a single beat  ^ here too

[Chorus]
The chorus is just chords, and it is mainly violin...
but here is the guitar version of those chords.

    Bb    C     Dm    Csus2
e|--6-----8----(10)---(8)----|
B|--6-----8----(10)----8-----|
G|--7-----9-----10----10-----|
D|--8----10-----12----10-----|
A|-(8)---10-----12-----8-----|
E|-(6)----8-----10----(8)----|

    D#    F    Gm    Fsus2
e|--3-----1----(3)----1------|
B|--4-----1-----3-----1------|
G|--3-----2-----0-----3------|
D|-(1)----3-----0-----3------|
A|-------(3)----1----(1)-----|
E|-------(1)----3------------|

[Bridge] The bridge is moderately difficult, and this is my dumbed down version because I can't play or tab
the real thing. Work off of this and make it your own. The bridge doesn't have a capo, though I figure you
could play it with one. It wouldn't be any easier, though.
e|---------------------------------------------------------------------------|
B|------------10----------------10--------------13----11-10------------------|
G|-7/10-10-12----12-10----10-12----12-10-------------------------------------|
D|---------------------12----------------10--10----10------------------------|
A|---------------------------------------------------------------------------|
E|---------------------------------------------------------------------------|

************************************

(n) Optional note
h   Hammer-on
p   Pull-off
/   Slide up
\   Slide down
s   Slap

************************************
Suggest correction
Creating personal tab
Creating personal tab
You can edit any tab online and save it as your Personal.

You can edit, replace or remove any tab part or add personal notes – all changes will be seen only by you.

Personal tabs can be accessed anytime from any device, even offline.
Learn more »
Give kudos to tab author, rate the tab!
1 2 3 4 5
comments
print report bad tab
guest
You may want to rate the tab now too:
select rating
Wanna post a correction for this tab? Suggest correction