Oops, an error
Loading. Please wait.

18 Karat Gold Tab

version 1
version 1

Intro

Interactive

10,468 views 3 this week
1 commentread comment
1 2 3 4 5
accurate
x 6
add to favorites
launch autoscroll
font size
0
reset
how to read this tab
guitar tuner
Autoscroll
slow
fast
+/-
esc
set tempo
stop
Help us to improve Ultimate-Guitar.com Take our survey!
×
Author
E|---------------------------------------------------------|
b|--------3--------3---------------------------------------|
g|-------------------------2-------2----------4------4-----|
d|-----0--------0------------------------------------------|
a|---------------------0-------0-----------2--------2------|
e|---------------------------------------------------------|

E|---------------------------------------------------------|
b|---------------------------------------------------------|
g|------------4----------4---------------------------------|
d|---------------------------------------------------------|
a|------2----------2---------------------------------------|
e|---------------------------------------------------------|x4


Suggest correction
comments
print report bad tab
1 comment total.
+1 reply
virrigavirre 10 wrote on January 19 2009, 03:02 pm

very good tab

guest
You may want to rate the tab now too:
select rating
Wanna post a correction for this tab? Suggest correction