Oops, an error
Loading. Please wait.

Everywhere With You Man Tab

134 views 1 this week
no commentswrite comment
1 2 3 4 5
3 more votes to show rating
add to favorites
launch autoscroll
font size
0
reset
how to read this tab
guitar tuner
Autoscroll
slow
fast
+/-
esc
set tempo
stop
Help us to improve Ultimate-Guitar.com Take our survey!
×
Author
Difficulty
The other chord/tab is very incomplete so here is one that contains all chords and 
mostly all riffs aswell.

John does not play chords in the verses so it's a bit arbitrary as to what the correct 
chords would be.

Intro: G Em, G Em, C Em G C,

   C                            D
e|---------------------------------------------------------------------------|
B|---------------------------------------------------------------------------|
G|---------------------------------------------------------------------------|
D|---------------------------------------------------------------------------|
A|------------------------------------3--3-3-3-3--3-3-3-3--3-3-3-------------|
E|-0-0-0-0--3-3-3-0--0-0-3-0----2-2-2----------------------------------------|

Verse:
  G                         Bm
  Follow me now,            Let's take a
e|---------------------------------------------------------------------------|
B|---------------------------------------------------------------------------|
G|---------------------------------------------------------------------------|
D|---------------------------------------------------------------------------|
A|---------------------------2-2-2-2-----------------------------------------|
E|-3-3-3-3--3-3-3-3--3-3-3-3-------------------------------------------------|

  G                     G/F# Bm
  long way home,             Then start all
e|---------------------------------------------------------------------------|
B|---------------------------------------------------------------------------|
G|---------------------------------------------------------------------------|
D|---------------------------------------------------------------------------|
A|---------------------------2-2-2-2-----------------------------------------|
E|-3-3-3-3--3-3-3-3--3-3-2-2-------------------------------------------------|

  Am                          Bm
  over again,                 On a
e|---------------------------------------------------------------------------|
B|---------------------------------------------------------------------------|
G|---------------------------------------------------------------------------|
D|---------------------------------------------------------------------------|
A|-0-0-0-0--0-0-0-0--0-0-0-0--2-2-2-2----------------------------------------|
E|---------------------------------------------------------------------------|

  G                     G/F# Bm
  brand new road.
e|---------------------------------------------------------------------------|
B|---------------------------------------------------------------------------|
G|---------------------------------------------------------------------------|
D|---------------------------------------------------------------------------|
A|---------------------------2-2-2-2-----------------------------------------|
E|-3-3-3-3--3-3-3-3--3-3-2-2-------------------------------------------------|

  G                         Bm
  With a wide open mind,    I got it
e|---------------------------------------------------------------------------|
B|---------------------------------------------------------------------------|
G|---------------------------------------------------------------------------|
D|---------------------------------------------------------------------------|
A|---------------------------2-2-2-2-----------------------------------------|
E|-3-3-3-3--3-3-3-3--3-3-3-3-------------------------------------------------|

  Em                        Bm
  under control.            but time is
e|---------------------------------------------------------------------------|
B|---------------------------------------------------------------------------|
G|---------------------------------------------------------------------------|
D|---------------------------------------------------------------------------|
A|---------------------------2-2-2-2-----------------------------------------|
E|-0-0-0-0--0-0-0-0--0-0-0-0-------------------------------------------------|

  Am                C                    Em                  D*
  slowing me down,  colorful sound,      I can make it grow
e|---------------------------------------------------------------------------|
B|---------------------------------------------------------------------------|
G|---------------------------------------------------------------------------|
D|---------------------------------------------------------------------------|
A|-0-0-0-0--0-0-0-0--3-3-3-3--3-3-3-3----2-2-2-2--2-2------------------------|
E|---------------------------------------------------------------------------|

Chorus
D*
It's been a long time
G
coming,
        Em
are you ready?
          G                   Em
I've been everywhere with you man,
        C              Em
are you ready, are you coming?
            G                            C
This is the last time...        Oooa ooa ooo


   C                            D
  Go ahead be free, just act    like me
e|---------------------------------------------------------------------------|
B|---------------------------------------------------------------------------|
G|---------------------------------------------------------------------------|
D|---------------------------------------------------------------------------|
A|------------------------------------3--3-3-3-3--3-3-3-3--3-3-3-------------|
E|-0-0-0-0--3-3-3-0--0-0-3-0----2-2-2----------------------------------------|

Verse
G
Out in the field,
Bm             G                 G/F#
we'll loose the sense of control.
Bm      Am
But in the city light,
Bm     G         G/F#
we can recognize.

Bm    G
With a wide open mind,
Bm        Em
we got it under control.

Bm          Am
but time is slowing us down,
C
colorful sound,
Em
we can make it grow.

Chorus
D                     G
It's been a long time
G
coming,
        Em
are you ready?
          G                   Em
I've been everywhere with you man,
        C              Em
are you ready, are you coming?
            G                            C
This is the last time...        Oooa ooa ooo


C                            D
Go ahead be free, just act    like me
Go ahead be free, just act    like me

Bridge

         G
When you die,
                        Em
you lived your delicate life,
               G
now you breath again,
                       Em
when you're among your friends,
   C         Bm          D*
it feels, so ready to me now

Solo
  |D*        G       Em     G                        Em        C
e|---------------------------------------------------------------------------|
B|---------------------------------------------------------------------------|
G|-----------------------------12-11-11-10-10--------------------------------|
D|-10^12\/10-9---------------9---------------12-12-9-9--9-7-5-7--------------|
A|---------------------10-10------------------------------------7-7-7--------|
E|---------------------------------------------------------------------------|

     Em         G       C*    D*            (*these are only half the length of intro 
and chorus)
e|---------------------------------------------------------------------------|
B|---------------8-777-555----555--7-----------------------------------------|
G|-----4-4-----4----------777------------------------------------------------|
D|----5-----5-5--------------------------------------------------------------|
A|-5-7-----------------------------------------------------------------------|
E|---------------------------------------------------------------------------|

Chorus
It's been a long time coming,
are you ready?
I've been everywhere with you man,
are you ready, are you coming?
This is the last time

It's been a long time coming,
are you ready?
I've been everywhere with you man,
are you ready, are you coming?
This is the last time...

Go ahead be free, just act like me.
Go ahead be free, just act like me.

G Em - End on G
This is the last time...
I've come to my senses...
Suggest correction
Give kudos to tab author, rate the tab!
1 2 3 4 5
comments
print report bad tab
guest
You may want to rate the tab now too:
select rating
Wanna post a correction for this tab? Suggest correction