Oops, an error
Loading. Please wait.

Everywhere With You Man Ukulele Chords

24 views 1 this week
no commentswrite comment
1 2 3 4 5
3 more votes to show rating
add to favorites
launch autoscroll
font size
0
reset
transpose
0
reset
display chords
guitar tuner
Autoscroll
slow
fast
+/-
esc
set tempo
stop
Help us to improve Ultimate-Guitar.com Take our survey!
×
Difficulty
novice
JOHNOSSI - EVERYWHERE (With you man)
STANDARD TUNING

INTRO:

F Am  F Am  F Am  F Am

e-----333--3--22-----------|
B-5555---55-53--33333333/0-|
G--------------------------|
D--------------------------|
A--------------------------|
E--------------------------|


VERSE:

   F               Am      F               Am
e---------------------------------------------------|
B---------------------------------------------------|
G---------------------------------------------------|
D---------------------------------------------------|
A------------------2-2-2-2-----------------2-2-2-2--|
E--3-3-3-3-3-3-3-3---------3-3-3-3-3-3-2-2----------|

   F               Am      F               Am
e---------------------------------------------------|
B---------------------------------------------------|
G---------------------------------------------------|
D------------------2-2-2-2--------------------------|
A--3-3-3-3-3-3-3-3-------------------------2-2-2-2--|
E--------------------------3-3-3-3-3-3-2-2----------|


F             Am
Follow me now,
            F             Am
lets take a long way home,
               F          Am
Then start all over again,
     F              Am
on a brand new road.

G                              Chords are a bit misplaced but
With a wide open mind,         you can figure it out
         Am
I got it under control.
            F
The time is slowing me down,

colorful sound,
      F              G
I can make it grow.



CHORUS:

                      F
It's been a long time coming,
        Am
are you ready?
          F                   Am
I've been everywhere with you man,
        F              Am
are you ready, are you coming?
            F             Am
This is the last time...

(play the intro riff here)
Go ahead and be free, just act like me.



BRIDGE:

         F
When you die,
                        Am
you lived your delicate life,
               F
now you breath again,
                       Am
when you're among your friends,
   F         G
it feels, so ready to be now
Suggest correction
Give kudos to tab author, rate the tab!
1 2 3 4 5
comments
print report bad tab
guest
You may want to rate the tab now too:
select rating
Wanna post a correction for this tab? Suggest correction