Oops, an error
Loading. Please wait.

Gone Forever Tab

2,641 views 6 this week
2 commentsread comments
1 2 3 4 5
please rate
add to favorites
launch autoscroll
font size
0
reset
how to read this tab
guitar tuner
Autoscroll
slow
fast
+/-
esc
set tempo
stop
Help us to improve Ultimate-Guitar.com Take our survey!
×
Author
Difficulty
intermediate
Johnossi - Gone Forever:

(standard tuning)

I'v tabbed the chords, but you'll have to figure out the strumminpattern for yourselves. Enjoy!

[Intro]
E:-------------------------------|
B:-------------------------------|
G:-------------------------------|
D:-------------------------------|
A:------0---5---2---0---2-4------|
E:-2---4----------------------2--|

E:--------------------------|
B:--------------------------|
G:--------7-----7--9--------| 
D:--4--7--7--9--7--9--4-----| 1x
A:--4--7--5--9--5--7--4-----|
E:--2--5-----7--------2-----|

(Piano part):
E:-7-9-7-----------------|
B:-------10-7----7-10----|
G:-------------9---------|  3x
D:-----------------------|
A:-----------------------|
E:-----------------------|

E:-7-9-7----------|
B:-------10-7-----|
G:----------------| 1x
D:----------------|
A:----------------|
E:----------------|

[Verse]
E:------------------------------|
B:------------------------------|
G:----7-------------------------| 3x
D:-4--7--9--7--4----------------|
A:-4--5--9--7--4----------------|
E:-2-----7--5--2----------------|

[Bridge] 
E:--------------------------|
B:--------------------------|
G:--------7-----7--9--------| (one strum on each chord)
D:--4--7--7--9--7--9--4-----| 1x
A:--4--7--5--9--5--7--4-----|
E:--2--5-----7--------2-----|

[Chorus]
E:-------------------------------------|
B:-------------------------------------|
G:--------7-----7--9-------------------|
D:--4--7--7--9--7--9--4----------------| 1x
A:--4--7--5--9--5--7--4----------------|
E:--2--5-----7--------2----------------|

[Verse]
E:---------------------------------|
B:---------------------------------|
G:----7----------------------------| 2x
D:-4--7--9--7--4-------------------|
A:-4--5--9--7--4-------------------|
E:-2-----7--5--2-------------------|

[Chorus]
E:-------------------------------------|
B:-------------------------------------|
G:--------7-----7--9-------------------| 
D:--4--7--7--9--7--9--4----------------| 3x
A:--4--7--5--9--5--7--4----------------|
E:--2--5-----7--------2----------------|

(Piano part):
E:-7-9-7-----------------|
B:-------10-7----7-10----|
G:-------------9---------|  3x
D:-----------------------|
A:-----------------------|
E:-----------------------|

E:-7-9-7----------|
B:-------10-7-----|
G:----------------| 1x
D:----------------|
A:----------------|
E:----------------|

[Solo]
E:--------------------------------x-----------|
B:----------------5---------------7-----------|
G:--------------7--7-6--6-4-------6-----------|
D:--4--67---6-7-------------7-6-4-4--67---6-7-|
A:--------------------------------------------|
E:--------------------------------------------|

E:-------------------------x-----------------------------x------------|
B:-------------------------x-------------5---------------7------------|
G:--6/7-7/9/7-6--6-4-------x-----------7--7-6--6-4-------6------------|
D:-4-----------------7-6---4--6-7--6-7-------------7-6-4-4--6-7--6-7--|
A:-------------------------4------------------------------------------|
E:-----------------------2-2------------------------------------------|


E:--------------------------|
B:--------------------------|
G:--6/7-7/9/7-6--6-4--------|
D:-4-----------------7-6-4--|
A:--------------------------|
E:--------------------------|

[Opptional Bridge]

E:-------------------------------------|
B:-------------------------------------|
G:--------7-----7--9-------------------| (strum to the same beat as the drum)
D:--4--7--7--9--7--9--4----------------| 1x
A:--4--7--5--9--5--7--4----------------|
E:--2--5-----7--------2----------------|
 or
E:-------------------------------------|
B:-7-7-7-7-7-7-7-etc-------------------|
G:-------------------------------------|
D:-------------------------------------|
A:-------------------------------------|
E:-------------------------------------|

[Chorus]
E:-------------------------------------|
B:-------------------------------------|
G:--------7-----7--9-------------------|
D:--4--7--7--9--7--9--4----------------| 3x
A:--4--7--5--9--5--7--4----------------|
E:--2--5-----7--------2----------------|

(Piano part):
E:-7-9-7-----------------|
B:-------10-7----7-10----|
G:-------------9---------|  3x
D:-----------------------|
A:-----------------------|
E:-----------------------|

E:-7-9-7----------|
B:-------10-7-----|
G:----------------| 1x
D:----------------|
A:----------------|
E:----------------|

Enjoy! :)
Suggest correction
What's this?
You can suggest a correction to this tab. Community and Mods will review your correction and vote to approve or reject it.
comments
We did not receive enough feedback on this tab! Please rate:
print report bad tab
1 2 3 4 5
2 comments total.
0 reply
Feka 329 wrote on May 2 2013, 05:40 am

Great tab, but there's one chord that's wrong.
In the chorus the 2nd last chord is not an A, it's an E.
-------
-------
--9----
--9----
--7----
--0----

Still 5 stars, hope you can see this and correct it!

+1 reply
Avengedchili 48 wrote on July 3 2013, 01:49 pm

Thanks for seeing that! It's corrected now and i changed the structure to a somewhat more readable tab then before.

guest
You may want to rate the tab now too:
select rating
Please do not post tabs as comments. Select "correction" instead!