Oops, an error
Loading. Please wait.

Got Your Gun chords

79 views 1 this week
no commentswrite comment
1 2 3 4 5
3 more votes to show rating
add to favorites
×
Save as Personal and add changes to this tab that will be seen only by you. Learn more ›
×
You can save this tab as Personal to edit and correct it or add notes. All changes will be seen only by you. Learn more »
launch autoscroll
font size
0
reset
transpose
0
reset
simplify chords
display chords
guitar tuner
edit
Autoscroll
slow
fast
+/-
esc
set tempo
stop
Author
Difficulty
Strumming
There is no strumming pattern for this song yet. and get +5 IQ
[Verse]
B5                              G5             F#5
 When the ghost said I got your gun then I got none (Ah-ah-ah-ah aiya-eh)
B5                              G5             F#5
 When the ghost said I got your gun then I got none (Ah-ah-ah-ah aiya-eh)

    B5                              G5                              F#5
e|-----------------------------------------------------------------------------------------------------|
B|----------------------------------------------------------------------7-------7----------------------|
G|------------7-----------7-------------------4-----------4---------7-------7---------------9-6-7---4--|
D|--9-----7-9---9-----7-9---9-------5-----4-5---5-----4-5---5---------9---9---9------------------------|
A|-----------------------------------------------------------------------------------------------------|
E|-----------------------------------------------------------------------------------------------------|

B5                                  G5              F#5
 Face the living dead hiding in the sun, nowhere to run (Ah-ah-ah-ah aiya-eh)
B5                           G5                 A5
 Then my mama said grab your gun, you show them son (Ah-ah-ah-ah aiya-eh)
G5               A5
 How to use that gun (Ah-ah-ah-ah aiya-eh)

[Chorus]
B5
You're gonna get, what you're gonna get
             D5
You're gonna bleed and connect and then you will get some
     A5
Yeah you're gonna get, what you're gonna get
             E5
You're gonna bleed and connect and then you will get some

    B5                              G5                              F#5
e|-----------------------------------------------------------------------------------------------------|
B|----------------------------------------------------------------------7-------7----------------------|
G|------------7-----------7-------------------4-----------4---------7-------7---------------9-6-7---4--|
D|--9-----7-9---9-----7-9---9-------5-----4-5---5-----4-5---5---------9---9---9------------------------|
A|-----------------------------------------------------------------------------------------------------|
E|-----------------------------------------------------------------------------------------------------|

[Verse]
B5                                  G5              F#5
 Face the living dead hiding in the sun, nowhere to run (Ah-ah-ah-ah aiya-eh)
B5                           G5                 A5
 Then my mama said grab your gun, you show them son (Ah-ah-ah-ah aiya-eh)
G5               A5
 How to use that gun (Ah-ah-ah-ah aia-yeh)

c

[Bridge]
B5   A5

    G5                           G5                          F#5
e|------------------------------------------------------------------------------------------|
B|------------------------------------------------------------------------------------------|
G|-----9-9-7-9---7-9---9b10r9-7----9-9-7-9---7-9---9b10r9-7-----9-9-7-9---7-9---9b10r9-7\4--|
D|--5----------------------------5---------------------------4------------------------------|
A|--5----------------------------5---------------------------4------------------------------|
E|--3----------------------------3---------------------------2------------------------------|

B5                               A5 G5
 Such a little earth, ain't worth nothing
G5
  Thinking my life is an illusion
G5                               F#5
  Live in a total mass confusion now
B5                              A5  G5
 Such a little earth, who's pulling strings
G5
  Live in a total mass confusion
G5                                 F#5
  Thinking my life is an illusion now

[Chorus]
B5
You're gonna get, what you're gonna get
             D5
You're gonna bleed and connect and then you will get some
     A5
Yeah you're gonna get, what you're gonna get
             E5
You're gonna bleed and connect and then you will get some
B5
You're gonna get, what you're gonna get
             D5
You're gonna bleed and connect and then you will get some
A5
All of your fear is reality here
E5                                          B5
Somebody took your soul but you've got your gun

            
            
Suggest correction
Creating personal tab
Creating personal tab
You can edit any tab online and save it as your Personal.

You can edit, replace or remove any tab part or add personal notes – all changes will be seen only by you.

Personal tabs can be accessed anytime from any device, even offline.
Learn more »
Give kudos to tab author, rate the tab!
1 2 3 4 5
comments
print report bad tab
guest
You may want to rate the tab now too:
select rating
Wanna post a correction for this tab? Suggest correction