Oops, an error
Loading. Please wait.

Man Must Dance Tab

version 1
version 1

Whole song

Interactive

112,556 views 60 this week
2 commentsread comments
1 2 3 4 5
x 28
add to favorites
launch autoscroll
font size
0
reset
how to read this tab
guitar tuner
Autoscroll
slow
fast
+/-
esc
set tempo
stop
Help us to improve Ultimate-Guitar.com Take our survey!
×
Author
Difficulty
novice
e|---------|
B|---------|
G|---------|
D|---------|
A|-10-/-2--|
E|---------|

4x
  Bm              F#              A               E       E7  
e|---------------|---------------|---------------|---------------|
B|----------3----|---------------|---1/2-1/2-----|----------3--0-|
G|----4--------4-|---------3-----|------------2--|---------------|
D|----4----------|----4------4---|--------------2|-------2-------|
A|-2-----2-------|----4--------4-|-0-------------|----2----------|
E|---------------|-2-----2-------|---------------|-0-------------|


[Bridge]

  D                A               E               F# 
e|---------------|---------------|---------------|---------------|
B|---------7-----|---------------|---------------|---------------|
G|---7-------7---|--------6------|--------1------|-------3-------|
D|---7-----------|---7------7----|---2------2----|---4-----4-----|
A|-5----5--------|---7--------7--|---2-----------|---4-------4---|
E|---------------|-5---5---------|-0----0--------|-2---2---------|
You and you and you and you...


[Chorus]

Bm D  A  Hm
Bm D  A  Hm

(The part where they sing "you and you..." After the chorus) 
BmD A E
BmD A

(ändringar gjorda av Oscar tha man)



************************************

| /  Slide up

************************************
Suggest correction
comments
print report bad tab
2 comments total.
+3 reply
ole-indiekid 151 Jun 07, 2006 02:43 PM

hia great tab! all i got stuck on is at the chorus, isnt it an E at the end instead of the Hm, :
Hm D A Hm = Hm D A E ?

+2 reply
cronan 167 Apr 14, 2008 02:20 PM

I would agree with ole-indiekid that the chorus is more likely to be:
Hm D A E

guest
You may want to rate the tab now too:
select rating
Wanna post a correction for this tab? Suggest correction