Oops, an error
Loading. Please wait.

Santa Monica Bay chords

103 views 3 this week
no commentswrite comment
1 2 3 4 5
3 more votes to show rating
add to favorites
×
Save as Personal and add changes to this tab that will be seen only by you. Learn more ›
×
You can save this tab as Personal to edit and correct it or add notes. All changes will be seen only by you. Learn more »
launch autoscroll
font size
0
reset
transpose
0
reset
simplify chords
display chords
guitar tuner
edit
Autoscroll
slow
fast
+/-
esc
set tempo
stop
Author
Difficulty
Strumming
There is no strumming pattern for this song yet. and get +5 IQ
[Intro]
Em

[Verse]
Em                                      G
 Santa Monica Bay could be the place to be for me
     D                           Em
many times you see, it's in your mind
Em                                      G
 Santa Monica Bay could be the place to be for me
     D                        Em
this time you see, it's in my mind
Em
 Since I was trapped inside within a bottle
         G
that was sealed with a broken heart
     D                              Em
I'll drown in blood, in the city of mud
Em
 While I was trapped inside within a bottle
         G
that was sealed with a broken heart
   D                      Em
so far away from your lemonade, Santa Monica Bay

[Chorus] 
    E5 x4     G5 x4         C5 x4         E5  G5 F#5  E5 A5 A#5 B5
e|-----------------------------------------------------------------|
B|--------------------------12-12-12-12----------------------------|
G|--9-9-9-9---12-12-12-12---12-12-12-12----------------------------|
D|--x-x-x-x---x--x--x--x----x--x--x--x----2---5---4---2---7--8--9--|
A|--7-7-7-7---10-10-10-10---10-10-10-10---2---5---4---2---7--8--9--|
E|----------------------------------------0---3---2---0---5--6--7--|

    E5 x4     G5 x4         C5 x4         E5  G5 F#5  E5 A5 A#5 B5        E5  G5 F#5  E5 A5 A#5 B5
e|-------------------------------------------------------------------------------------------------|
B|-------------------------------------------------------------------------------------------------|
G|--9-9-9-9---12-12-12-12---12-12-12-12------------------------------------------------------------|
D|--x-x-x-x---x--x--x--x----10-10-10-10---2---5---4---2---7--8--9---------2---5---4---2---7--8--9--|
A|--7-7-7-7---10-10-10-10---10-10-10-10---2---5---4---2---7--8--9---------2---5---4---2---7--8--9--|
E|----------------------------------------0---3---2---0---5--6--7---------0---3---2---0---5--6--7--|

[Verse]
Em                                      G
 Santa Monica Bay could be the place to be for me
     D                           Em
many times you see, it's in your mind
Em                                      G
 Santa Monica Bay could be the place to be for me
     D                        Em
this time you see, it's in my mind, nice
Em
 Since I was trapped inside within a bottle
         G
that was sealed with a broken heart
     D                              Em
I'll drown in blood, in the city of mud, yeah
Em
 While I was trapped inside within a bottle
         G
that was sealed with a broken heart
   D                      Em
So far away from Santa Monica Bay, and I'll do it all again

[Chorus] 
    E5 x4     G5 x4         C5 x4         E5  G5 F#5  E5 A5 A#5 B5
e|-----------------------------------------------------------------|
B|------------12-12-12-12---12-12-12-12----------------------------|
G|--9-9-9-9---12-12-12-12---12-12-12-12----------------------------|
D|--x-x-x-x---x--x--x--x----x--x--x--x----2---5---4---2---7--8--9--|
A|--7-7-7-7---10-10-10-10---10-10-10-10---2---5---4---2---7--8--9--|
E|----------------------------------------0---3---2---0---5--6--7--|

    E5 x4     G5 x4         C5 x4         E5  G5 F#5  E5 A5 A#5 B5        E5  G5 F#5  E5 A5 A#5 B5    G5  E5
e|-----------------------------------------------------------------------------------------------------------|
B|--------------------------11-11-11-------------------------------------------------------------------------|
G|--9-9-9-9---12-12-12-12---x--x--x--12----------------------------------------------------------------------|
D|--x-x-x-x---x--x--x--x----10-10-10-10---2---5---4---2---7--8--9---------2---5---4---2---7--8--9-----5---2--|
A|--7-7-7-7---10-10-10-10-----------------2---5---4---2---7--8--9---------2---5---4---2---7--8--9-----5---2--|
E|----------------------------------------0---3---2---0---5--6--7---------0---3---2---0---5--6--7-----3---0--|

            
            
Suggest correction
Creating personal tab
Creating personal tab
You can edit any tab online and save it as your Personal.

You can edit, replace or remove any tab part or add personal notes – all changes will be seen only by you.

Personal tabs can be accessed anytime from any device, even offline.
Learn more »
Give kudos to tab author, rate the tab!
1 2 3 4 5
comments
print report bad tab
guest
You may want to rate the tab now too:
select rating
Wanna post a correction for this tab? Suggest correction