Oops, an error
Loading. Please wait.

Social Flu Tab

961 views 1 this week
no commentswrite comment
1 2 3 4 5
please rate
add to favorites
launch autoscroll
font size
0
reset
how to read this tab
guitar tuner
Autoscroll
slow
fast
+/-
esc
set tempo
stop
Help us to improve Ultimate-Guitar.com Take our survey!
×
Author
-------------------------------------------------------------------------------
                             Johnossi - Social Flu
-------------------------------------------------------------------------------
Tabbed by: d-max

Tuning: standard


Intro 1

   /very fast parts\
e|--------------------------------------------------------------|
B|--------------------------------------------------------------|
G|-6666666666666666--2-2-2-2-2-2--6666666666666666--2---2-2-2-2-|
D|-6666666666666666--2-2-2-2-2-2--6666666666666666--2---2-2-2-2-|
A|-4444444444444444--0-0-0-0-0-0--4444444444444444--0---0-0-0-0-|
E|--------------------------------------------------------------|

e|--------------------------------------------------------------|
B|--------------------------------------------------------------|
G|-6666666666666666--2---2---2----6666666666666666--4-4-4-4-5-4-|
D|-6666666666666666--2---2---2----6666666666666666--4-4-4-4-5-4-|
A|-4444444444444444--0---0---0----4444444444444444--2-2-2-2-3-2-|
E|--------------------------------------------------------------|
                                                    . . . .   
Intro 2

  A
e|--------------------|
B|--------------------|
G|-6--6-66-\-2--2-22--|
D|-6--6-66-\-2--2-22--|   x3
A|-4--4-44-\-0--0-00--|
E|--------------------|
  B
e|----------------------|
B|----------------------|
G|-----------4-4-4-5----|
D|-2--2-22---4-4-4-5----|
A|-2--2-22---2-2-2-3----|
E|-0--0-00--------------|
             . . . .


Verse

Riff A
e|----------------------------------------|
B|----------------------------------------|
G|-6--6-66-\-2--2-/4----------------------|
D|-6--6-66-\-2--2-/4---6--6-66-\-4--4-44--|   
A|-4--4-44-\-0--0-/2---6--6-66-\-4--4-44--|
E|---------------------4--4-44-\-2--2-22--|

Riff B
e|----------------------------------------|
B|----------------------------------------|
G|-6--6-66--------------------------------|
D|-6--6-66---6--6-66-/-7--7-77-\-4--4-44--|        
A|-4--4-44---6--6-66-/-7--7-77-\-4--4-44--|    
E|-----------4--4-44-/-5--5-55-\-2--2-22--|

Riff C
e|--------------------------------------------|
B|--------------------------------------------|
G|-6--6-66-\-2--2-/4--------------------------|
D|-6--6-66-\-2--2-/4---6--6-66--4~-///////-11-|   
A|-4--4-44-\-0--0-/2---6--6-66--4~------------|
E|---------------------4--4-44--2~------------|

Verse order
Riff A x2
Riff B x1
Riff C x1


Chorus

e|-----------------------------------|
B|-----------------------------------|
G|-66666666--------44444444----------|
D|-66666666666666664444444444444444--|
A|-44444444666666662222222244444444--|
E|---------44444444--------22222222--|

e|-----------------------------------|
B|-----------------------------------|
G|-66666666--------44444444----------|
D|-6666666666666666444444444---------|
A|-4444444466666666222222224---------|
E|---------44444444--------2---------|



Intro 2 (BUT: A x2
              B x1)

Verse

Chorus x2

Intro 2 (with A x2
          and B x1 again)


Bridge
with Delay and Octave

e|------------------------|                                
B|------------------------|                         
G|-6---11--9--------7--6--|                
D|-6------------7---------|    x3               
A|-4------------7---------|                    
E|--------------5---------|                     

e|------------------------|
B|------------------------|
G|-4----------------------|
D|-4---9--6---------------|
A|-2----------9--6--------|
E|------------------9-----|

e|------------------------|
B|------------------------|
G|-6---11--9--------7--6--|
D|-6------------7---------|    x3
A|-4------------7---------|
E|--------------5---------|

e|------------------------|
B|------------------------|
G|-4-----------------8----|
D|-4---9--6---------------|
A|-2----------9--6--------|
E|------------------------|


Chorus x2

Intro 1 

End
e|-----|
B|-----|
G|-6--\|
D|-6--\|
A|-4--\|
E|-----|



| /  slide up
| \  slide down
| h  hammer-on
| p  pull-off
| ~  vibrato
| +  harmonic
| x  Mute note
==============================================================================
Suggest correction
What's this?
You can suggest a correction to this tab. Community and Mods will review your correction and vote to approve or reject it.
comments
We did not receive enough feedback on this tab! Please rate:
print report bad tab
1 2 3 4 5
guest
You may want to rate the tab now too:
select rating
Please do not post tabs as comments. Select "correction" instead!