Oops, an error
Loading. Please wait.

Whats The Point Tab

version 2
version 2

Whole song

289 views 3 this week
no commentswrite comment
1 2 3 4 5
please rate
add to favorites
launch autoscroll
font size
0
reset
how to read this tab
guitar tuner
Autoscroll
slow
fast
+/-
esc
set tempo
stop
Help us to improve Ultimate-Guitar.com Take our survey!
×
Author
JOHNOSSI - WHAT'S THE POINT
STANDARD TUNING


INTRO:

e---------------------------|
B--5-5-7-5------------------|
G--6-------7-6--------------|
D--7-----------9-9-11-9-7---|
A--0------------------------|
E---------------------------|

   A                           F#          D        E

e------------------------------2-2---2-2-----5---5---------|
B--5-5---5-5---5-5---5-5-------2---2-----2-----5----0------|
G--6---6-----6-6---6-----7-6-4-2-----------2------------1--|
D--7-----------7---------------4-----------0----------2----|
A--0-----------0-------------------------------------------|
E----------------------------------------------------------|
                                                    U D U
e------------------------------2-2---2-2-----5---5---------|
B--5-5---5-5---5-5---5-5-------2---2-----2-----5-----------|
G--6---6-----6-6---6-----7-6-4-2-----------2--------1-1-1--|
D--7-----------7---------------4-----------0--------2-2-2--|
A--0-----------0------------------------------------2-2-2--|
E---------------------------------------------------0-0-0--|


VERSE: A F# E, ends on A when chorus comes

A                              F#      E
Where do we go when we go from here?
A                                              F#    E
Feels like a circle around me while I wait for more
A                                     F#   E
Know that I wanna know where I follow you
A                                                  F#
Don't wanna go down the street where you once came from
    E       A
And I wanna know


CHORUS: A  F#  C#m  E
A
What's the point of doing anything
                F#
If you'll never notice
                C#m/A        E
I would sit and wait for you again


BRIDGE:

e--2-3----2-3----|
B--2-3-10-2-3----|
G--2-4-9--2-4-2--|
D--4-5-7--4-5-2--|
A--4-5-0--4-5-0--|
E--2-3----2-3----|

e--------------------------------------------------------------------------|
B--------------------3-3-3-3-----------------------------------------------|
G-----------2-2-2-2-2-2-2-2---4-4-4-4-----------2-2-2-2-----------2-2-2-2--|
D--0-0-0-0-2-2-2-2--0-0-0-0--4-4-4-4---2-2-2-2-2-2-2-2---2-2-2-2-2-2-2-2---|
A-2-2-2-2--0-0-0-0-----------2-2-2-2--2-2-2-2--0-0-0-0--2-2-2-2--0-0-0-0---|
E-3-3-3-3-----------------------------0-0-0-0-----------0-0-0-0------------|

G        A                  D
Then you came to me and you said
          Bm          Em            A
I was not really sure enough how to feel
  G                       A
I pretend like you're not real
G        A                  D
Then you came to me and you said
          Bm          Em            A
I was not really sure enough how to feel
   G                       A       D
To pretend like you're not real to me


HAVE FUN!
Suggest correction
Give kudos to tab author, rate the tab!
1 2 3 4 5
comments
print report bad tab
guest
You may want to rate the tab now too:
select rating
Wanna post a correction for this tab? Suggest correction