Oops, an error
Loading. Please wait.

Bakuran tab

937 views 39 this week
no commentswrite comment
1 2 3 4 5
1 last vote to show rating
add to favorites
×
Save as Personal and add changes to this tab that will be seen only by you. Learn more ›
×
You can save this tab as Personal to edit and correct it or add notes. All changes will be seen only by you. Learn more »
launch autoscroll
font size
0
reset
how to read this tab
guitar tuner
edit
Autoscroll
slow
fast
+/-
esc
set tempo
stop
[Intro]

e|---------------------------------------------------------------------------|
B|---------------------------------------------------------------------------|
G|------4---4---4----------4---4---4---------4---4---4---------4---4---------|
D|----0---0---0---0------0---0---0---------0---0---0---0-----0---0-----------| (2X)
A|---------------------------------------3-----------------3-----------------|
E|--3------------------3-----------------------------------------------------|


[Verse]

e|---------------------------------------------------------------------------|
B|---------------------------------------------------------------------------|
G|------4---4---4----------4---4---4---------4---4---4---------4---4---------|
D|----0---0---0---0------0---0---0---------0---0---0---0-----0---0-----------|
A|---------------------------------------3-----------------3-----------------|
E|--3------------------3-----------------------------------------------------|
            Magkaibigan..                               Nagkakaibigan..
            Wag nang pigilan..                          Ang nararamdaman


[Refrain]

e|-------------------------------2-------------------------------------------|
B|--------1-------------4------1--------------0------3----------2------------|
G|------0-------------2------2--------------0------2---2------2--------------|
D|----2-------------4------1--------------2------0----------2----------------|
A|--0-------------3---------------------------------------4------------------|
E|-------------------------------------0-------------------------------------|
       Wag nang pag-isipan                Ang tumawid sa bakuran


e|-----------------------------3---------------------------------------------|
B|--------1------------------4-----------------------------------------------|
G|------0------------------5-------------------------------------------------|
D|----2------------------5---------------------------------------------------|
A|--0------------------3-----------------------------------------------------|
E|---------------------------------------------------------------------------|
             May pangambang...


[Instrumental]

(Repeat Intro once)

e|---------------------------------------------------------------------------|
B|---------------------------------------------------------------------------|
G|------4---4---4----------4---4---4---------4---4---4---------4---4---------|
D|----0---0---0---0------0---0---0---------0---0---0---0-----0---0-----------|  
A|---------------------------------------3-----------------3-----------------|
E|--3------------------3-----------------------------------------------------|


(Repeat Verse and Refrain)

[Verse]

e|---------------------------------------------------------------------------|
B|---------------------------------------------------------------------------|
G|------4---4---4----------4---4---4---------4---4---4---------4---4---------|
D|----0---0---0---0------0---0---0---------0---0---0---0-----0---0-----------|
A|---------------------------------------3-----------------3-----------------|
E|--3------------------3-----------------------------------------------------|
            Magkaibigan..                               Nagkakaibigan..
            Wag nang pigilan..                          Ang nararamdaman

[Refrain]

e|-------------------------------2-------------------------------------------|
B|--------1-------------4------1--------------0------3----------2------------|
G|------0-------------2------2--------------0------2---2------2--------------|
D|----2-------------4------1--------------2------0----------2----------------|
A|--0-------------3---------------------------------------4------------------|
E|-------------------------------------0-------------------------------------|
       Wag nang pag-isipan                Ang tumawid sa bakuran


e|-----------------------------3---------------------------------------------|
B|--------1------------------4-----------------------------------------------|
G|------0------------------5-------------------------------------------------|
D|----2------------------5---------------------------------------------------|
A|--0------------------3-----------------------------------------------------|
E|---------------------------------------------------------------------------|
             May pangambang...


[Chorus] 

strumming..

e|---3---3---3---3---3---3----0--2--3----------------------------------------|
B|---3---3---3---3---3---3----0--3--3----------------------------------------|
G|---0---0---0---0---0---0----0--2--0----------------------------------------|
D|---0---2---0---2---0---2----2--0--2----------------------------------------|
A|---2---3---2---3---2---3----2--x--3----------------------------------------|
E|---3---x---3---x---3---x----0--x-------------------------------------------|


e|---3---3---3---3---3---3----0--2--x----------------------------------------|
B|---3---3---3---3---3---3----0--3--5----------------------------------------|
G|---0---0---0---0---0---0----0--2--4----------------------------------------|
D|---0---2---0---2---0---2----2--0--5----------------------------------------|
A|---2---3---2---3---2---3----2--x--4----------------------------------------|
E|---3---x---3---x---3---x----0--x--x----------------------------------------|

e|---------------------------------------------2-----------------------------|
B|--------0-------------------1--------4-----1-------------------------------|
G|------0-------------------0--------2-----2---------------------------------|
D|----2-------------------2--------4-----1-----------------------------------|
A|--3-------------------0--------3-------------------------------------------|
E|---------------------------------------------------------------------------|
          Ba't di mo sinabi?            Ba't dimo sinabi?

e|--------------------------------------------------------3------------------|
B|--------0-----3---------2-------------------1---------4--------------------|
G|------0-----2---2-----2-------------------0---------5----------------------|
D|----2-----0---------2-------------------2---------5------------------------|
A|------------------4-------------------0---------3--------------------------|
E|--0------------------------------------------------------------------------|
                          Ba't di mo sinabi?


[Instrumental]

(Repeat Intro)

e|---------------------------------------------------------------------------|
B|---------------------------------------------------------------------------|
G|------4---4---4----------4---4---4---------4---4---4---------4---4---------|
D|----0---0---0---0------0---0---0---------0---0---0---0-----0---0-----------|  
A|---------------------------------------3-----------------3-----------------|
E|--3------------------3-----------------------------------------------------|


[Verse]

e|---------------------------------------------------------------------------|
B|---------------------------------------------------------------------------|
G|------4---4---4----------4---4---4---------4---4---4---------4---4---------|
D|----0---0---0---0------0---0---0---------0---0---0---0-----0---0-----------|
A|---------------------------------------3-----------------3-----------------|
E|--3------------------3-----------------------------------------------------|
            Magkaibigan..                               Nagkakaibigan..
            Wag nang pigilan..                          Ang nararamdaman


[Chorus] 

strumming..

e|---3---3---3---3---3---3----0--2--3----------------------------------------|
B|---3---3---3---3---3---3----0--3--3----------------------------------------|
G|---0---0---0---0---0---0----0--2--0----------------------------------------|
D|---0---2---0---2---0---2----2--0--2----------------------------------------|
A|---2---3---2---3---2---3----2--x--3----------------------------------------|
E|---3---x---3---x---3---x----0--x-------------------------------------------|


e|---3---3---3---3---3---3----0--2--x----------------------------------------|
B|---3---3---3---3---3---3----0--3--5----------------------------------------|
G|---0---0---0---0---0---0----0--2--4----------------------------------------|
D|---0---2---0---2---0---2----2--0--5----------------------------------------|
A|---2---3---2---3---2---3----2--x--4----------------------------------------|
E|---3---x---3---x---3---x----0--x--x----------------------------------------|

e|---------------------------------------------2-----------------------------|
B|--------0-------------------1--------4-----1-------------------------------|
G|------0-------------------0--------2-----2---------------------------------|
D|----2-------------------2--------4-----1-----------------------------------|
A|--3-------------------0--------3-------------------------------------------|
E|---------------------------------------------------------------------------|
          Ba't di mo sinabi?            Ba't dimo sinabi?

e|--------------------------------------------------------3------------------|
B|--------0-----3---------2-------------------1---------4--------------------|
G|------0-----2---2-----2-------------------0---------5----------------------|
D|----2-----0---------2-------------------2---------5------------------------|
A|------------------4-------------------0---------3--------------------------|
E|--0------------------------------------------------------------------------|
                          Ba't di mo sinabi?


[Bridge]

e|----0--2------0----------------0--2-----0-------3------------------3-------|
B|----0--3------5----------------0--3-----5-------3------------------4-------|
G|----0--2------4----------------0--2-----4-------0------------------5-------|
D|----2--0------5----------------2--0-----5-------2------------------5-------|
A|----2--x------4----------------2--x-----4-------3------------------3-------|
E|----0--x------x----------------0--x-----x-------x------------------x-------|
       Kaya mo bang mabuhay kung malaman mo..    sya'y naghintay sa'yo oh-oh


[Chorus] 

strumming..

e|---3---3---3---3---3---3----0--2--3----------------------------------------|
B|---3---3---3---3---3---3----0--3--3----------------------------------------|
G|---0---0---0---0---0---0----0--2--0----------------------------------------|
D|---0---2---0---2---0---2----2--0--2----------------------------------------|
A|---2---3---2---3---2---3----2--x--3----------------------------------------|
E|---3---x---3---x---3---x----0--x-------------------------------------------|


e|---3---3---3---3---3---3----0--2--x----------------------------------------|
B|---3---3---3---3---3---3----0--3--5----------------------------------------|
G|---0---0---0---0---0---0----0--2--4----------------------------------------|
D|---0---2---0---2---0---2----2--0--5----------------------------------------|
A|---2---3---2---3---2---3----2--x--4----------------------------------------|
E|---3---x---3---x---3---x----0--x--x----------------------------------------|

e|---------------------------------------------2-----------------------------|
B|--------0-------------------1--------4-----1-------------------------------|
G|------0-------------------0--------2-----2---------------------------------|
D|----2-------------------2--------4-----1-----------------------------------|
A|--3-------------------0--------3-------------------------------------------|
E|---------------------------------------------------------------------------|
          Ba't di mo sinabi?            Ba't dimo sinabi?

e|--------------------------------------------------------3------------------|
B|--------0-----3---------2-------------------1---------4--------------------|
G|------0-----2---2-----2-------------------0---------5----------------------|
D|----2-----0---------2-------------------2---------5------------------------|
A|------------------4-------------------0---------3--------------------------|
E|--0------------------------------------------------------------------------|
                          Ba't di mo sinabi?


[Outro]

(Repeat Intro)

e|---------------------------------------------------------------------------|
B|---------------------------------------------------------------------------|
G|------4---4---4----------4---4---4---------4---4---4---------4---4---------|
D|----0---0---0---0------0---0---0---------0---0---0---0-----0---0-----------| (2X)
A|---------------------------------------3-----------------3-----------------|
E|--3------------------3-----------------------------------------------------|



************************************

| x  Dead note

************************************

            
            
Suggest correction
Creating personal tab
Creating personal tab
You can edit any tab online and save it as your Personal.

You can edit, replace or remove any tab part or add personal notes – all changes will be seen only by you.

Personal tabs can be accessed anytime from any device, even offline.
Learn more »
Give kudos to tab author, rate the tab!
1 2 3 4 5
comments
print report bad tab
guest
You may want to rate the tab now too:
select rating
Wanna post a correction for this tab? Suggest correction