Oops, an error
Loading. Please wait.

Lunes tab

version 1
version 1

Whole song

Interactive

8,844 views 24 this week
5 commentsread comments
1 2 3 4 5
x 4
add to favorites
×
Save as Personal and add changes to this tab that will be seen only by you. Learn more ›
×
You can save this tab as Personal to edit and correct it or add notes. All changes will be seen only by you. Learn more »
launch autoscroll
font size
0
reset
how to read this tab
guitar tuner
edit
Autoscroll
slow
fast
+/-
esc
set tempo
stop
Author
Difficulty
Tabbed by RAffy ronquillo
astig mga una kong tabs hehehe.. sna tama to..
kng my tnong kyo.. bhla na.. cge!
astig! lisen to da sounds of starfish jam carnival/the drop outs at halos peak! ayos

astig ang join da clab!
diskartehan nyo nalang ang mga palm mute nito
standard tuning lng yan kng gs2 nyo idrop cge maarte kayo eh
yung mga parts dyan n my ovrdrive diskartehan nyo nlng

Intro:
A5 at D5 ang chords sa part na to
e--------------------------------------------------------------|
b----------------------------11p9-11s13-11-9---11p9-11s13-11-9-|
g--------------------------------------------------------------|
d-8p6-8s10-8-6--8p6-8s10-8-6-----------------------------------| 2x
a--------------------------------------------------------------|
e--------------------------------------------------------------|


e-------------------------------------------------------------|
b-------------------------------------------------------------|
g-------------11-9------------------11-9----------------------|
d-8p6-8-8s10--------10--8p6-8-8s10--------10-10-8-8-8-8-6-6-6-|
a-------------------------------------------------------------|
e-------------------------------------------------------------|
sa  part na nato A5 at D5 rn pero
pagdating mo sa D5 gwin mo to
e------------------------------------------------------|
b-7/9--9--10--12---------------------------------------|
g-x/x--x---x---x---------------------------------------|
d-5/7--7---8--10---------------------------------------|
a------------------------------------------------------|
e------------------------------------------------------|

verse:
 A at D ata or A at C.. bhala na kayo

pre-chorus:
A5 at C5
pgdating sa C ung lead babanat nito
e------------------------------------------------------|
b-7/9--9--10--12---------------------------------------|
g-x/x--x---x---x---------------------------------------|
d-5/7--7---8--10---------------------------------------|
a------------------------------------------------------|
e------------------------------------------------------|

chorus:
   A5 G5 C5 B5 G5 tapos A5 G5 C5 D5 G5


bridge:
A5 at B5 tapos mppalm mute yan
diskartehn mo nlng palm mute


e-----------------------------------------------------------|
b-----------------------------------------------------------|
g-----------------------------------------------------------|
d-6-8-6-8s10-10-10-6-8-6-8s10-6-8-6-8s12-10-8-10-8-6-8-10-6-|
a-----------------------------------------------------------|
e-----------------------------------------------------------|
gitar2 sa part na to A5 at C5
e------------------------------------------------------------------|
b------------------------------------------------------------------|
g------------------------------------------------------------------|
d-6-8-6-8s10-10-10-6-8-6-8s10-6-8-6-8s12-10-8-10-8-6-8-10-10h11p10-|
a------------------------------------------------------------------|
e------------------------------------------------------------------|


e---------------------------------------------------------------|
b-9-9-8--8/-9\8--9----------------------------------------------|
g-x-x-x--x/-x\x--x--ulit ulitin mo nlng pakinggan mo------------|
d-6-6-5--5/-6\5--6------nalang kung ilang beses-----------------|
a---------------------------------------------------------------|
e---------------------------------------------------------------|
tapos dto gitar 2 A5 at G5

            
            
Suggest correction
Creating personal tab
Creating personal tab
You can edit any tab online and save it as your Personal.

You can edit, replace or remove any tab part or add personal notes – all changes will be seen only by you.

Personal tabs can be accessed anytime from any device, even offline.
Learn more »
comments
print report bad tab
5 comments total. Showing first comments.
0 reply
Jam_dropout 10 Oct 29, 2005 08:20 PM

hehe! ayus tong tabs mo ah! hehe ako ung unang nag rate! hulaan m kung sino ako??

0 reply
mabuhaysifpj 10 Nov 24, 2005 10:57 PM

waw naman

0 reply
bumpy 117 Dec 13, 2005 01:31 AM

complicated po pls see lunes chord version...galing po un sa vocalist ng join the club...

guest
You may want to rate the tab now too:
select rating
Wanna post a correction for this tab? Suggest correction