Oops, an error
Loading. Please wait.

Nobela Tab

version 3
version 3

Solo

  • The song was originally played on a electric guita... Show more

Interactive

34 views 3 this week
no commentswrite comment
1 2 3 4 5
3 more votes to show rating
add to favorites
launch autoscroll
font size
0
reset
how to read this tab
guitar tuner
Autoscroll
slow
fast
+/-
esc
set tempo
stop
Help us to improve Ultimate-Guitar.com Take our survey!
×
Author
Difficulty
Tuning
novice
D# G# C# F# A# D#
About this tab version
The song was originally played on a electric guitar with a different toning into it, and I played mine on an acoustic guitar just changing the tuning lower than standard. Was this info helpful? Yes No
[Intro]

D#|----------------------------------|
A#|----------------------------------|
F#|----------------------------------|
C#|---------------------3----------4-|
G#|-2-4/6--4-2-9-6-4-6-4--5-5-5-7-5--|
D#|----------------------------------|(x2)

D#|----------------------------------------------------------------------------------------|
A#|----------------------------------------------------------------------------------------|
F#|----------------------------------------------------------------------------------------|
C#|------------------------------------------------------------------------------------3-1-|
G#|-2-4-2-2/6---6-7-6-6/9-7-6-4-2---6-6-6-7-9-6----6-7-6------6-7-6-6/9-7-6-4-6-4-4-2-1----|
D#|------------------------------------------------------8/9-------------------------------|



If it doesn't quite sound the same as the recording for you, trying it in a different tuning. I played this 
on my acoustic guitar and I just wrote this while listening to the solo part of the song.  
                                                                                         x - Kris



************************************

| /  Slide up

************************************
Suggest correction
Give kudos to tab author, rate the tab!
1 2 3 4 5
comments
print report bad tab
guest
You may want to rate the tab now too:
select rating
Wanna post a correction for this tab? Suggest correction