Oops, an error
Loading. Please wait.

Nobela tab

version 1
version 1

Whole song

Interactive

54,618 views 243 this week
25 commentsread comments
1 2 3 4 5
x 23
add to favorites
×
Save as Personal and add changes to this tab that will be seen only by you. Learn more ›
×
You can save this tab as Personal to edit and correct it or add notes. All changes will be seen only by you. Learn more »
launch autoscroll
font size
0
reset
how to read this tab
guitar tuner
edit
Autoscroll
slow
fast
+/-
esc
set tempo
stop
Author
Title: Nobela
Artist: Join The Club
Album: Noblela

Instrument: Guitar

Tabbed by: Jhake Ass (geraldsviray@yahoo.com)

Tuning: Standard (E A D G B E)

SURE NA SURE AKO.... TAMA ITO... ^_^

Use Brass... or any Slider... ^_^

[Intro:]
         Eb           G        Eb            G              Ab
E|----------------------|--------------------------------------|
B|----------------------|--------------------------------------|
G|-3---/-8---10-\-7-\-3-|-3---/-8---10-/-15-\-12--10-/-12-\-8--|
D|----------------------|--------------------------------------|
A|----------------------|--------------------------------------|
E|----------------------|--------------------------------------|


[Verse] with this riff:
E|---------------------------------||
B|---------------------------------||
G|7-h-8--10----7---8---10----------||
D|---------------------------------||
A|---------------------------------||
E|---------------------------------||

Ab           Eb
ngumiti kahit na napipilitan 
Ab               Eb
kahit pa sinasadya 
Ab             Eb
mo akong masaktan paminsan-minsan 
Ab                Bb
kahit sandali na lang 
Ab              Eb
tulad mo ba akong nahihirapan 
Ab             Eb
dahil naiisip ka 
Ab             Eb
di ko na kaya pang kalimutan 
C#                Bb
bawat sandali na lang 


[Chorus] with this riff
  Mag-Tremolo lang po kau... listen to the song... ^_^
E|---------------------------------||
B|11~~~~~~~-8~~~~~~~---------------||
G|-------------------10~~~~~-------||
D|---------------------------------||
A|---------------------------------||
E|---------------------------------||

    Ab          Bb
at aalis magbabalik 
      Gm        C
at uulitin sa muli 
       Ab        Bb
mamahalin kasambitib 
        Gm       C
kahit muli masaktan 
        Ab
sa pag-alis 
ako'y magbabalik 
       Abm - Bb
sana naman 

(Do the chords in verse 1)
sa isang marikit na alaala 
pangitahing kay ganda 
sana ngay pagbigyan 
na ng tadhana 
bawat sandali na lang 
sumabay sa biglang pagkabahala 
lumabis sa pananadya 
tunay na pagsilan alintana 
bawat sandali na lang 

Chorus:(Chords in first Chorus) 
at aalis magbabalik 
at uulitin sa muli 
mamahalin kasambitib 
kahit muli masaktan 
sa pag-alis 
ako'y magbabalik 
sana naman 
   C#                          D#               Ab
E|-------------------------------------------------||
B|-----6-----7/9-6---6-------------6-6-6-7-6-------||
G|-6-8---8-6-------8---8-6-\-1-/-3-----------1-/-3-||(Repeat)
D|-------------------------------------------------||
A|-------------------------------------------------||
E|-------------------------------------------------||

         F#        Ab          Fm           Bb
E|-----------------------------------------------||
B|-------6---6-7-6-------7-/-9-6--6-6-6-7--9-6---||
G|-6-8-6-----------8-6-5-------------------------||
D|-----------------------------------------------||
A|-----------------------------------------------||
E|-----------------------------------------------||
         F#              F#m           Ab
E|------------------------------------------------------||
B|-6-7-9-9-/-14-----6-7-6-------------------------------||
G|------------------------8-6-5-6--8-/-10--8-8--6-5-----||
D|--------------------------------------------------8-6-||
A|------------------------------------------------------||
E|------------------------------------------------------||


    F#          C#
ngumiti kahit na napipilitan 
F#              C#
kahit pa sinasadya
F#             C# 
mo akong masaktan paminsan-minsan 
F#                Ab
bawat sandali na lang

     F#          Ab
at aalis magbabalik
     Fm         Bb 
at uulitin sa muli
     F#          Ab 
mamahalin kasambitib
      Fm        Bb 
kahit muli masaktan 
     F#
sa pag-alis 
ako'y magbabalik 
      Fm    Ab
sana naman 

HOPE YOU LIKE IT AT TUMAMA DIN SA INYONG MGA SEPRA... ^_^ 
Suggest correction
Creating personal tab
Creating personal tab
You can edit any tab online and save it as your Personal.

You can edit, replace or remove any tab part or add personal notes – all changes will be seen only by you.

Personal tabs can be accessed anytime from any device, even offline.
Learn more »
comments
print report bad tab
25 comments total. Showing first comments.
-2 reply
rocker_19 10 Feb 06, 2006 02:37 AM

ang panget!

-1 reply
gladysmarky143 10 Feb 20, 2006 07:49 PM

MALI DAW SBI N MASTER ENRICO HEHEHEHE!!!!!!!!

-1 reply
ods17 10 Feb 27, 2006 03:36 AM

jologs pare sagwa pakinggan

guest
You may want to rate the tab now too:
select rating
Wanna post a correction for this tab? Suggest correction