Oops, an error
Loading. Please wait.

Tomgang chords

version 2
version 2

Whole song

152 views 9 this week
no commentswrite comment
1 2 3 4 5
3 more votes to show rating
add to favorites
×
Save as Personal and add changes to this tab that will be seen only by you. Learn more ›
×
You can save this tab as Personal to edit and correct it or add notes. All changes will be seen only by you. Learn more »
launch autoscroll
font size
0
reset
transpose
0
reset
display chords
guitar tuner
edit
Autoscroll
slow
fast
+/-
esc
set tempo
stop
Author
Difficulty
Strumming
There is no strumming pattern for this song yet. and get +5 IQ
Jokke Med Tourettes - Tomgang


A                 E       A
 Sola skinner men vintern kommer
A               E        A
 Der ute er det slutt på sommern
A                    D             E
 To fulle menn ække fullt så fulle lenger
A                       E              A
 Men dem har aldri hatt bedre bruk for penger


B                      G            D          A
 Jeg subber videre her kommer høsten i all sin tyngde
B                    E                   G                 F#
 Kanskje er jeg ikke en av gutta men jeg ække no hypp på å synge
B                  G         D        A
 Noe særlig mer om alle mine perfekte dager
B                 E          G               E
 Jeg hakke så forbanna mange igjen av dem på lager
 G                 E
 Perfekte dager på lager lenger

Chours: (x2)
|---------------------------------------|
|---------------------------------------|
|------------5--------------7----5------|
|----5---7-------7---5--7---------------|
|-7-------------------------------------|
|---------------------------------------|
 Jeg går på tomgang baby yeah yeah

|-----------------------------------------|
|-----------------------------------------|
|------------5----------------------------|
|----5---7---------7-5-7-----5--7--5------|
|-7------------------------------------7--|
|-----------------------------------------|
Jeg går på tomgang,      jeg er på vei ned


A                       E        A
  Alle forventer seg en lykkelig dranker
A                      E      A
 som aldri tenker noen dypere tanker
A                          D            E
 enn når den neste sjekken kommer inn i banken
A                            E       A
 alt som skal til for at jeg gir dem lanken


B                      G                  D            A
Men jeg har skjønt for lenge siden at jeg er for infisert
B               E                     G         F#
 Og heller ikke selskapsjuk nok til å være invitert
B              G           D           A
 Til et såkalt rocka party her i denne byen
B                E                   G               E
 Dessuten er jeg alt for gnukk til å punge ut for menyen
         G                   E
 For dem velger jo alltid en jævla dyr en

Chours (x2)
|---------------------------------------|
|---------------------------------------|
|------------5--------------7----5------|
|----5---7-------7---5--7---------------|
|-7-------------------------------------|
|---------------------------------------|
 Jeg går på tomgang baby yeah yeah

|-----------------------------------------|
|-----------------------------------------|
|------------5----------------------------|
|----5---7---------7-5-7-----5--7--5------|
|-7------------------------------------7--|
|-----------------------------------------|
Jeg går på tomgang baby, jeg er på vei ned

Outro (x2)
|---------------------------------------|
|---------------------------------------|
|------------5--------------7----5------|
|----5---7-------7---5--7---------------|
|-7-------------------------------------|
|---------------------------------------|
 Jeg går på tomgang!        Yeah yeah!

|-----------------------------------------|
|-----------------------------------------|
|------------5----------------------------|
|----5---7---------7-5-7-----5--7--5------|
|-7------------------------------------7--|
|-----------------------------------------|
Jeg går på tomgang!      Jeg er på vei ned!


            
            
Suggest correction
Creating personal tab
Creating personal tab
You can edit any tab online and save it as your Personal.

You can edit, replace or remove any tab part or add personal notes – all changes will be seen only by you.

Personal tabs can be accessed anytime from any device, even offline.
Learn more »
Give kudos to tab author, rate the tab!
1 2 3 4 5
comments
print report bad tab
guest
You may want to rate the tab now too:
select rating
Wanna post a correction for this tab? Suggest correction