Oops, an error
Loading. Please wait.

Her Kommer Vintern tab

12,136 views 3 this week
no commentswrite comment
1 2 3 4 5
1 last vote to show rating
add to favorites
×
Save as Personal and add changes to this tab that will be seen only by you. Learn more ›
×
You can save this tab as Personal to edit and correct it or add notes. All changes will be seen only by you. Learn more »
launch autoscroll
font size
0
reset
how to read this tab
guitar tuner
edit
Autoscroll
slow
fast
+/-
esc
set tempo
stop
Author
Difficulty
Subject: tab: Her Kommer Vintern (Jokke & Valentinerne)

                        Her Kommer Vintern
                       Jokke & Valentinerne			


INTRO: D-A D-E D-A-F#m-E

INTRO Solo:

1----------------------------10-10-8-6-8~-------------------10-8-6-----------------|
2-8-8-10-11-11-----8-8-10-11--------------8-8-10-11-11-------------8-6-6-6-3-4-3-1-|
3-------------10~--------------------------------------10~-------------------------|
4----------------------------------------------------------------------------------|
5----------------------------------------------------------------------------------|
6----------------------------------------------------------------------------------|



        A                  D

VERS:   Er du av typen som aldri blir brun, og som



        Hm                      E

        aldri heller prøver noe særlig på å bli det



        A                   D

        Er du ansett som en kjedelig kujon



        Hm                       E

        fordi du stort sett ikke gidder å bade	



        D         A         D           E                   D

        Har du problemer    med å omgås overdrevne positive folk



                 A           F#                E

        du ekke aleine,vi er mange som har det sånn



VERS:	Er du av typen som liker å sitte,

	sitte inne og pimpe når sola skinner

	Er du av typen som er svak for sport

	Men bare på skjermen,og bare når vi vinner

	Da har du problemer,ifølge peanøtt hjerneforbundet

	Men du ekke aleine,vi er mange som har det sånn


        A                      D              Hm              E

BRIDGE:	Folkens,jeg kommer med nyheter,jeg må be om absolutt stillhet



        A            D        Hm            E

	Ventetida er over,det kommer til å  -  falle snø i natt



        D          A          D              E

REFR:	Her kommer vintern    her kommer den kalde fine tida



        D          A         F#m            E

	her kommer vintern   endelig fred å få




GIT.SOLO: A-D-Hm-E-A-D-Hm-E 	

Solo:

1-------------------------------3----------------|-------6---6---6---6---8-6-|
2-----1-3-1---3-3-3-1---------3---5-3-5-3-2------|-6-8-6---6---6---6---6-----|
3-----------3---------3~--3-5---------------5-3~-|---------------------------|
4-3-3--------------------------------------------|---------------------------|
5------------------------------------------------|---------------------------|
6------------------------------------------------|---------------------------|

1-6-5-6-----------------3-3-5-6-5-5-6-6~-|
2-------6-4-3-3-4-4-6-6------------------|
3----------------------------------------|
4----------------------------------------|
5----------------------------------------|
6----------------------------------------|



        D            A         D           E                    

	Lai lai lai lai lai    lai lai lai lailailailai



        D           A          F#m             E


	lai lai lai lai lai -  lai lai lai lai lai



VERS:	Er du av typen som lar deg irritere 

	av folk som alltid skal imponere

	Har du et kjøleskap,har du en TV

	så har du alt du trenger for å leve for


REFR:

        D          A       D              E       

        Her kommer vintern her kommer den kalde fine tida      

        D          A       F#m            E

        Her kommer vintern endelig fred å få


        C#m-H-A

            
            
Suggest correction
Creating personal tab
Creating personal tab
You can edit any tab online and save it as your Personal.

You can edit, replace or remove any tab part or add personal notes – all changes will be seen only by you.

Personal tabs can be accessed anytime from any device, even offline.
Learn more »
Give kudos to tab author, rate the tab!
1 2 3 4 5
comments
print report bad tab
guest
You may want to rate the tab now too:
select rating
Wanna post a correction for this tab? Suggest correction