Oops, an error
Loading. Please wait.

Blaze Of Glory chords

version 3
version 3

Whole song

Interactive

115 views 9 this week
no commentswrite comment
1 2 3 4 5
3 more votes to show rating
add to favorites
×
Save as Personal and add changes to this tab that will be seen only by you. Learn more ›
×
You can save this tab as Personal to edit and correct it or add notes. All changes will be seen only by you. Learn more »
launch autoscroll
font size
0
reset
transpose
0
reset
display chords
guitar tuner
edit
Autoscroll
slow
fast
+/-
esc
set tempo
stop
About this tab version
RIFFS included for acoustic playing. Was this info helpful? Yes No
Strumming
There is no strumming pattern for this song yet. and get +5 IQ
[Intro]

e|--------------------------------------|
B|-13b15r13-----------------------------|
G|----------14p12-----------------------|
D|----------------15-12~------12~-------|
A|----------------------15-12-----------|
E|--------------------------------13-10~|

e|----------------------------------------------------------|
B|-------------------13-13/15-------------------------------|
G|---12/14-14-14--14---------14~--10/12-12-12--12-9h10p9-7~-|
D|----------------------------------------------------------|
A|----------------------------------------------------------|
E|----------------------------------------------------------|2x

e|----------------------------------------------------------|
B|----------------------------------------------------------|
G|----------------------------------------------------------|
D|--------3----------------3----------------3---------------|
A|---3-5----5-3-5-----3-5----5-3-5-----3-5----5-3-5-----3-5~|
E|-5----------------5----------------5----------------5-----|


[Verse 1]
Dm
I wake up in the morning
 C
And I raise my weary head
            G
I've got an old coat for a pillow
        Dm
And the earth was last night's bed
  F
I don't know where I'm going
     C
Only God knows where I've been
      G
I'm a devil on the run, a six-gun lover
  Dm
A candle in the wind (Yeah!)

[Instrumental]

e|----------------8-8h10------------------------|
B|-8/10-10-10--10-------10---6/8-8-8--8-5h6p5-3~|
G|----------------------------------------------|
D|----------------------------------------------|
A|----------------------------------------------|
E|----------------------------------------------|2x


[Verse 2]
            Dm
When you've brought into this world
     C
They say you're born in sin
        G
Well at least they gave me something
                 Dm
I didn't have to steal or have to win
          F
Well they tell me that I'm wanted
      C
Yeah, I'm a wanted man
      G
I'm a colt in your stable, I'm what Cain was to Abel
       Dm
Mister catch me if you can


[Chorus]
          G         D
I'm going down in a blaze of glory
    G           D
Take me now but know the truth
          G        D
I'm going out in a blaze of glory
      C
Lord, I never drew first but I drew first blood
    G                             ( Dm )
I'm no one's son, call me young gun


[Instrumental]

e|----------------8-8h10------------------------|
B|-8/10-10-10--10-------10---6/8-8-8--8-5h6p5-3~|
G|----------------------------------------------|
D|----------------------------------------------|
A|----------------------------------------------|
E|----------------------------------------------|


[Verse 3]
    Dm
You ask about my conscience
      C
And I offer you my soul
                G
You ask if I'll grow to be a wise man
     Dm
Well I ask if I'll grow old
    F
You ask me if I've known love
                      C
And what it's like to sing songs in the rain
           G
Well, I've seen love come and I've seen it shot down
     Dm
I've seen it die in vain


[Chorus]
   G           D
Shot down in a blaze of glory
        G       D
Take me now but know the truth
                 G         D
'Cause I'm going down in a blaze of glory
      C
Lord, I never drew first but I drew first blood
        G                            ( Dm )
I'm the devil's son, call me young gun


[Instrumental]

e|----------------8-8h10------------------------|
B|-8/10-10-10--10-------10---6/8-8-8--8-5h6p5-3~|
G|----------------------------------------------|
D|----------------------------------------------|
A|----------------------------------------------|
E|----------------------------------------------|2x

Yeah!

[Solo]

G D G D
G D C G

[Instrumental]

e|----------------8-8h10------------------------|
B|-8/10-10-10--10-------10---6/8-8-8--8-5h6p5-3~|
G|----------------------------------------------|
D|----------------------------------------------|
A|----------------------------------------------|
E|----------------------------------------------|2x


[Verse 4]
     Dm
Each night I go to bed
           C
I pray the Lord my soul to keep
           G
No I ain't looking for forgiveness
    Dm
But before I'm six foot deep
      F
Lord, I got to ask a favor
      C
And I hope you'll understand
            G
'Cause I've lived life to the fullest
         Dm
Let this boy die like a man
G
    Staring down a bullet
       Dm
Let me make my final stand


[Chorus]
     G         D
Shot down in a blaze of glory
        G       D
Take me now but know the truth
          G        D
I'm going out in a blaze of glory
       C
Lord I never drew first but I drew first blood
    G
I'm no one's son
              D  C
Call me young gun
           G   D  C
I'm a young gun  Yeah-ah
G     D        C
Young Gun  Yeah Yeah-yey
G     D   C G
Young  Gun


[Outro]

e|----------------8-8h10--------------------------|
B|-8/10-10-10--10-------10---6/8-8-8--8-5/6\5~~3~~|
G|------------------------------------------------|
D|------------------------------------------------|
A|------------------------------------------------|
E|------------------------------------------------|2x

e|------------------------------------1-|
B|-1h3p1h3p1---1-3--3p1---1-1h3~--1~--3-|
G|-----------2----------2-------------2-|
D|------------------------------------0-|
A|--------------------------------------|
E|--------------------------------------|

************************************

| (n) Ghost note
| h   Hammer-on
| p   Pull-off
| b   Bend
| r   Release
| /   Slide up
| \   Slide down
| ~   Vibrato

************************************

            
            
Suggest correction
Creating personal tab
Creating personal tab
You can edit any tab online and save it as your Personal.

You can edit, replace or remove any tab part or add personal notes – all changes will be seen only by you.

Personal tabs can be accessed anytime from any device, even offline.
Learn more »
Give kudos to tab author, rate the tab!
1 2 3 4 5
comments
print report bad tab
guest
You may want to rate the tab now too:
select rating
Wanna post a correction for this tab? Suggest correction