Oops, an error
Loading. Please wait.
We have Chord Pro version of Never Say Die.
It's the closest thing you can get to the original song and it has interactive parts. Check out the tab »
×

Never Say Die tab

version 1
version 1

Whole song

  • Complete and Accurate version with solo.

Interactive

13 views 1 this week
no commentswrite comment
1 2 3 4 5
2 more votes to show rating
add to favorites
×
Save as Personal and add changes to this tab that will be seen only by you. Learn more ›
×
You can save this tab as Personal to edit and correct it or add notes. All changes will be seen only by you. Learn more »
launch autoscroll
font size
0
reset
how to read this tab
guitar tuner
edit
Autoscroll
slow
fast
+/-
esc
set tempo
stop
About this tab version
Complete and Accurate version with solo. Was this info helpful? Yes No
Never Say Die - Jon Bon Jovi
There are 2 and sometimes 3 guitars.

[Intro]
     A                                         B
     E  H        Q.        W                   W                 
e|---------------------|-------------------|-------------------|
B|---------------------|-------------------|-------------------|
G|---------------------|-------------------|--4----------------|
D|--7--7--------L------|--L----------------|--4----------------|
A|--7--7--------L------|--L----------------|--2----------------|
E|--5--5--------L------|--L----------------|-------------------|

   D                   A           
   W                   E  H        Q.        W                 
e|-------------------|---------------------|-------------------|
B|-------------------|---------------------|-------------------|
G|--7----------------|---------------------|-------------------|
D|--7----------------|--7--7--------L------|--L----------------|
A|--5----------------|--7--7--------L------|--L----------------|
E|-------------------|--5--5--------L------|--L----------------|

   B                   D
   W                   W                                
e|-------------------|-------------------|
B|-------------------|-------------------|
G|--4----------------|--7----------------|
D|--4----------------|--7----------------|
A|--2----------------|--5----------------|
E|-------------------|-------------------|

[Intro II] (First guitar power chords)
   A                                                  D
    Q.      Q.      Q        Q.      Q.      Q         Q.      Q.      Q     
e|------------------------|-------------------------|------------------------|
B|--14------12------10----|--14------12------10s----|--15------14------12----|
G|------------------------|-------------------------|------------------------|
D|------------------------|-------------------------|------------------------|
A|------------------------|-------------------------|------------------------|
E|------------------------|-------------------------|------------------------|
                                    A
    Q.      Q.     S   S  S   S     Q.      Q.      Q     
e|-------------------------------|------------------------|
B|--10--------------------10h-12-|--14------12------10----|
G|----------11------9h-11--------|------------------------|
D|-------------------------------|------------------------|
A|-------------------------------|------------------------|
E|-------------------------------|------------------------|
                              D 
    Q.      Q.      Q         Q.      Q.      Q        Q.      Q.     Q     
e|-------------------------|------------------------|-----------------------|
B|--14------12------10s----|--15------14------12----|--10-------------------|
G|-------------------------|------------------------|----------11------9----|
D|-------------------------|------------------------|-----------------------|
A|-------------------------|------------------------|-----------------------|
E|-------------------------|------------------------|-----------------------|

[Verse 1] 

NO GUITAR

A
As we stood there older than men
D
And younger than the boys (that's right)
A
We were as still as the wind
D                               Fill 1
That blows on a hot august night

 Fill 1
                       Q    Q.     E   Q        W                  
e|-------------------|-----------------------|---------------------|
B|-------------------|-----------------------|---------------------|
G|-------------------|--------------7h--9----|--(7)----------------|
D|-------------------|--------------7h--9----|--(7)----------------|
A|-------------------|-----------------------|---------------------|
E|-------------------|-----------------------|---5~----------------||

[Verse 2]
    A
 And you were lonesome
    E    E    E    E    E    E    E    E    
e|------------------------------------------|
B|------------------------------------------|
G|------------------------------------------|
D|------------------------------------------|
A|---7-------------------7------------------|
E|--(5)--(5)--(5)--(5)--(5)--(5)--(5)--(5)--|

 As a jukebox
    E    E    E    E    E    E    E    E    
e|------------------------------------------|
B|------------------------------------------|
G|------------------------------------------|
D|------------------------------------------|
A|---7-------------------7------------------|
E|--(5)--(5)--(5)--(5)--(5)--(5)--(5)--(5)--|

    D
 But deadly just the same
    E    E    E    E    E    E    E    E    
e|------------------------------------------|
B|------------------------------------------|
G|------------------------------------------|
D|--(7)-----------------(7)-----------------|
A|--(5)--(5)--(5)--(5)--(5)--(5)--(5)--(5)--|
E|------------------------------------------|

    E    E    E    E    E    E    E    E    
e|------------------------------------------|
B|------------------------------------------|
G|------------------------------------------|
D|--(7)-----------------(7)-----------------|
A|--(5)--(5)--(5)--(5)--(5)--(5)--(5)--(5)--|
E|------------------------------------------|

    A
 I could be as gentle as a newborn
    E    E    E    E    E    E    E    E    
e|------------------------------------------|
B|------------------------------------------|
G|------------------------------------------|
D|------------------------------------------|
A|---7-------------------7------------------|
E|--(5)--(5)--(5)--(5)--(5)--(5)--(5)--(5)--|

    A
    E    E    E    E    E    E    E    E    
e|------------------------------------------|
B|------------------------------------------|
G|------------------------------------------|
D|------------------------------------------|
A|---7-------------------7------------------|
E|--(5)--(5)--(5)--(5)--(5)--(5)--(5)--(5)--|

    D
 Then spit into the eye of a hurricane
    E    E    E    E    E    E    E    E    
e|------------------------------------------|
B|------------------------------------------|
G|------------------------------------------|
D|--(7)-----------------(7)-----------------|
A|--(5)--(5)--(5)--(5)--(5)--(5)--(5)--(5)--|
E|------------------------------------------|

    D
    E    E    E    E    E    E    E    E    
e|------------------------------------------|
B|------------------------------------------|
G|------------------------------------------|
D|--(7)-----------------(7)-----------------|
A|--(5)--(5)--(5)--(5)--(5)--(5)--(5)--(5)--|
E|------------------------------------------|

[Pre Chorus]
    E
 And we knew how to laugh
    E    E    E    E    E    E    E    E    
e|------------------------------------------|
B|------------------------------------------|
G|------------------------------------------|
D|---9-------------------9------------------|
A|--(7)--(7)--(7)--(7)--(7)--(7)--(7)--(7)--|
E|------------------------------------------|

 And we knew how to laughz
    E    E    E    E    E    E    E    E    
e|------------------------------------------|
B|------------------------------------------|
G|------------------------------------------|
D|---9-------------------9------------------|
A|--(7)--(7)--(7)--(7)--(7)--(7)--(7)--(7)--|
E|------------------------------------------|

    D
 And we knew how to 
    E    E    E    E    E    E    E    E    
e|------------------------------------------|
B|------------------------------------------|
G|------------------------------------------|
D|--(7)-----------------(7)-----------------|
A|--(5)--(5)--(5)--(5)--(5)--(5)--(5)--(5)--|
E|------------------------------------------|

    A
 cry
    E    E    E    E    E    E    E    E    
e|------------------------------------------|
B|------------------------------------------|
G|------------------------------------------|
D|------------------------------------------|
A|---7-------------------7------------------|
E|--(5)--(5)--(5)--(5)--(5)--(5)--(5)--(5)--|

    E
 Yeah, we sure knew how to live
    E    E    E    E    E    E    E    E    
e|------------------------------------------|
B|------------------------------------------|
G|------------------------------------------|
D|---9-------------------9------------------|
A|--(7)--(7)--(7)--(7)--(7)--(7)--(7)--(7)--|
E|------------------------------------------|

    E    E    E    E    E    E    E    E    
e|------------------------------------------|
B|------------------------------------------|
G|------------------------------------------|
D|---9-------------------9------------------|
A|--(7)--(7)--(7)--(7)--(7)--(7)--(7)--(7)--|
E|------------------------------------------|

    B
 But we don't ever
    E    E    E    E    E    E    E    E    
e|------------------------------------------|
B|------------------------------------------|
G|------------------------------------------|
D|--(4)-----------------(4)-----------------|
A|--(2)--(2)--(2)--(2)--(2)--(2)--(2)--(2)--|
E|------------------------------------------|

[Chorus]
    E                                          A
 Never say die
    E    E    E    E    E    E    E    E       Q.      Q.      Q     
e|------------------------------------------|------------------------|
B|------------------------------------------|--14------12------10----|
G|------------------------------------------|------------------------|
D|---9-------------------9------------------|------------------------|
A|--(7)--(7)--(7)--(7)--(7)--(7)--(7)--(7)--|------------------------|
E|------------------------------------------|------------------------|

                              D
    Q.      Q.      Q         Q.      Q.      Q     
e|-------------------------|------------------------|
B|--14------12------10s----|--15------14------12----|
G|-------------------------|------------------------|
D|-------------------------|------------------------|
A|-------------------------|------------------------|
E|-------------------------|------------------------|

                                   A
                  Never say die
    Q.      Q.     S   S  S   S     Q.      Q.      Q     
e|-------------------------------|------------------------|
B|--10--------------------10h-12-|--14------12------10----|
G|----------11------9h-11--------|------------------------|
D|-------------------------------|------------------------|
A|-------------------------------|------------------------|
E|-------------------------------|------------------------|

                              D
    Q.      Q.      Q         Q.      Q.      Q        Q.      Q.     Q     
e|-------------------------|------------------------|-----------------------|
B|--14------12------10s----|--15------14------12----|--10-------------------|
G|-------------------------|------------------------|----------11------9----|
D|-------------------------|------------------------|-----------------------|
A|-------------------------|------------------------|-----------------------|
E|-------------------------|------------------------|-----------------------|

[Verse 3]
    A
 I guess you'd say we had a pact
    E    E    E    E    E    E    E    E    
e|------------------------------------------|
B|------------------------------------------|
G|------------------------------------------|
D|------------------------------------------|
A|---7-------------------7------------------|
E|--(5)--(5)--(5)--(5)--(5)--(5)--(5)--(5)--|

    E    E    E    E    E    E    E    E    
e|------------------------------------------|
B|------------------------------------------|
G|------------------------------------------|
D|------------------------------------------|
A|---7-------------------7------------------|
E|--(5)--(5)--(5)--(5)--(5)--(5)--(5)--(5)--|

    D
 These words we knew so well (that's right)
    E    E    E    E    E    E    E    E    
e|------------------------------------------|
B|------------------------------------------|
G|------------------------------------------|
D|--(7)-----------------(7)-----------------|
A|--(5)--(5)--(5)--(5)--(5)--(5)--(5)--(5)--|
E|------------------------------------------|
                              
    E    E    E    E    E    E   E  E   
e|--------------------------------------|
B|--------------------------------------|
G|--------------------------------7--7--|
D|--(7)-----------------(7)-------7--7--|
A|--(5)--(5)--(5)--(5)--(5)--(5)--5--5--|
E|--------------------------------------|

    A
 Still they remained unspoken
    E    E    E    E    E    E    E    E    
e|------------------------------------------|
B|------------------------------------------|
G|------------------------------------------|
D|------------------------------------------|
A|---7-------------------7------------------|
E|--(5)--(5)--(5)--(5)--(5)--(5)--(5)--(5)--|

    A
    E    E    E    E    E    E    E    E    
e|------------------------------------------|
B|------------------------------------------|
G|------------------------------------------|
D|------------------------------------------|
A|---7-------------------7------------------|
E|--(5)--(5)--(5)--(5)--(5)--(5)--(5)--(5)--|

    D
 And we'd take them to the fiery
    E    E    E    E    E    E    E    E    
e|------------------------------------------|
B|------------------------------------------|
G|------------------------------------------|
D|--(7)-----------------(7)-----------------|
A|--(5)--(5)--(5)--(5)--(5)--(5)--(5)--(5)--|
E|------------------------------------------|

    D
 Gates of hell            (Arrangment Below)
    E    E    E    E    E    E    E    E    
e|------------------------------------------|
B|------------------------------------------|
G|------------------------------------------|
D|--(7)-----------------(7)-----------------|
A|--(5)--(5)--(5)--(5)--(5)--(5)--(5)--(5)--|
E|------------------------------------------|

    W                    Q.       Q     Q.            W                  
e|--------------------|-----------12-----L---------|
B|--------------------|--12b-------L----12pbr------|
G|--------------------|----------------------------|
D|--------------------|----------------------------|
A|--------------------|----------------------------|
E|--------------------|----------------------------|

[Pre Chorus]
    E
 Once i was afraid of love
    E    E    E    E    E    E    E    E    
e|------------------------------------------|
B|------------------------------------------|
G|------------------------------------------|
D|---9-------------------9------------------|
A|--(7)--(7)--(7)--(7)--(7)--(7)--(7)--(7)--|
E|------------------------------------------|

    E
    E    E    E    E    E    E    E    E    
e|------------------------------------------|
B|------------------------------------------|
G|------------------------------------------|
D|---9-------------------9------------------|
A|--(7)--(7)--(7)--(7)--(7)--(7)--(7)--(7)--|
E|------------------------------------------|

    D
 But when it's your brother
    E    E    E    E    E    E    E    E    
e|------------------------------------------|
B|------------------------------------------|
G|------------------------------------------|
D|--(7)-----------------(7)-----------------|
A|--(5)--(5)--(5)--(5)--(5)--(5)--(5)--(5)--|
E|------------------------------------------|

    A
 Those things change
    E    E    E    E    E    E    E    E    
e|------------------------------------------|
B|------------------------------------------|
G|------------------------------------------|
D|------------------------------------------|
A|---7-------------------7------------------|
E|--(5)--(5)--(5)--(5)--(5)--(5)--(5)--(5)--|

    E
 'cause love is just another word 
    E    E    E    E    E    E    E    E    
e|------------------------------------------|
B|------------------------------------------|
G|------------------------------------------|
D|---9-------------------9------------------|
A|--(7)--(7)--(7)--(7)--(7)--(7)--(7)--(7)--|
E|------------------------------------------|

 For trust
    E    E    E    E    E    E    E    E    
e|------------------------------------------|
B|------------------------------------------|
G|------------------------------------------|
D|---9-------------------9------------------|
A|--(7)--(7)--(7)--(7)--(7)--(7)--(7)--(7)--|
E|------------------------------------------|

    B
 So hear me when i say
    E    E    E    E    E    E    E    E    
e|------------------------------------------|
B|------------------------------------------|
G|------------------------------------------|
D|--(4)-----------------(4)-----------------|
A|--(2)--(2)--(2)--(2)--(2)--(2)--(2)--(2)--|
E|------------------------------------------|

    E
                              Never say die
    E    E    E    E    E    E    E    E    
e|------------------------------------------|
B|------------------------------------------|
G|------------------------------------------|
D|---9-------------------9------------------|
A|--(7)--(7)--(7)--(7)--(7)--(7)--(7)--(7)--|
E|------------------------------------------|

Chorus

    A
    E    E    E    E    E    E    E    E    
e|------------------------------------------|
B|------------------------------------------|
G|------------------------------------------|
D|------------------------------------------|
A|---7-------------------7------------------|
E|--(5)--(5)--(5)--(5)--(5)--(5)--(5)--(5)--|

    A
    E    E    E    E    E    E    E    E    
e|------------------------------------------|
B|------------------------------------------|
G|------------------------------------------|
D|------------------------------------------|
A|---7-------------------7------------------|
E|--(5)--(5)--(5)--(5)--(5)--(5)--(5)--(5)--|

    D
 Never say no
    E    E    E    E    E    E    E    E    
e|------------------------------------------|
B|------------------------------------------|
G|------------------------------------------|
D|--(7)-----------------(7)-----------------|
A|--(5)--(5)--(5)--(5)--(5)--(5)--(5)--(5)--|
E|------------------------------------------|

    D
    E    E    E    E    E    E    E    E    
e|------------------------------------------|
B|------------------------------------------|
G|------------------------------------------|
D|--(7)-----------------(7)-----------------|
A|--(5)--(5)--(5)--(5)--(5)--(5)--(5)--(5)--|
E|------------------------------------------|

    D
 You got to look them in the eye
    E    E    E    E    E    E    E    E    
e|------------------------------------------|
B|------------------------------------------|
G|------------------------------------------|
D|------------------------------------------|
A|---7-------------------7------------------|
E|--(5)--(5)--(5)--(5)--(5)--(5)--(5)--(5)--|

    A
    E    E    E    E    E    E    E    E    
e|------------------------------------------|
B|------------------------------------------|
G|------------------------------------------|
D|------------------------------------------|
A|---7-------------------7------------------|
E|--(5)--(5)--(5)--(5)--(5)--(5)--(5)--(5)--|

    D
 And don't let go
    E    E    E    E    E    E    E    E    
e|------------------------------------------|
B|------------------------------------------|
G|------------------------------------------|
D|--(7)-----------------(7)-----------------|
A|--(5)--(5)--(5)--(5)--(5)--(5)--(5)--(5)--|
E|------------------------------------------|

    D
    E    E    E    E    E    E    E    E    
e|------------------------------------------|
B|------------------------------------------|
G|------------------------------------------|
D|--(7)-----------------(7)-----------------|
A|--(5)--(5)--(5)--(5)--(5)--(5)--(5)--(5)--|
E|------------------------------------------|

    E
 When it's your own blood 
    E    E    E    E    E    E    E    E    
e|------------------------------------------|
B|------------------------------------------|
G|------------------------------------------|
D|---9-------------------9------------------|
A|--(7)--(7)--(7)--(7)--(7)--(7)--(7)--(7)--|
E|------------------------------------------|
 
    E
 you'll bleed
    E    E    E    E    E    E    E    E    
e|------------------------------------------|
B|------------------------------------------|
G|------------------------------------------|
D|---9-------------------9------------------|
A|--(7)--(7)--(7)--(7)--(7)--(7)--(7)--(7)--|
E|------------------------------------------|

    D
 And your own tears
    E    E    E    E    E    E    E    E    
e|------------------------------------------|
B|------------------------------------------|
G|------------------------------------------|
D|--(7)-----------------(7)-----------------|
A|--(5)--(5)--(5)--(5)--(5)--(5)--(5)--(5)--|
E|------------------------------------------|

    A
  you'll cry
    E    E    E    E    E    E    E    E    
e|------------------------------------------|
B|------------------------------------------|
G|------------------------------------------|
D|------------------------------------------|
A|---7-------------------7------------------|
E|--(5)--(5)--(5)--(5)--(5)--(5)--(5)--(5)--|

    E
 When you're brought up to believe
    E    E    E    E    E    E    E    E    
e|------------------------------------------|
B|------------------------------------------|
G|------------------------------------------|
D|---9-------------------9------------------|
A|--(7)--(7)--(7)--(7)--(7)--(7)--(7)--(7)--|
E|------------------------------------------|

    E
    E    E    E    E    E    E    E    E    
e|------------------------------------------|
B|------------------------------------------|
G|------------------------------------------|
D|---9-------------------9------------------|
A|--(7)--(7)--(7)--(7)--(7)--(7)--(7)--(7)--|
E|------------------------------------------|

    B
 That it's the strong who survive
    E    E    E    E    E    E    E    E    
e|------------------------------------------|
B|------------------------------------------|
G|------------------------------------------|
D|--(4)-----------------(4)-----------------|
A|--(2)--(2)--(2)--(2)--(2)--(2)--(2)--(2)--|
E|------------------------------------------|

    E                                          A
                               Never say die  
    E    E    E    E    E    E    E    E       Q.      Q.      Q     
e|------------------------------------------|------------------------|
B|------------------------------------------|--14------12------10----|
G|------------------------------------------|------------------------|
D|---9-------------------9------------------|------------------------|
A|--(7)--(7)--(7)--(7)--(7)--(7)--(7)--(7)--|------------------------|
E|------------------------------------------|------------------------|

                              D
    Q.      Q.      Q         Q.      Q.      Q     
e|-------------------------|------------------------|
B|--14------12------10s----|--15------14------12----|
G|-------------------------|------------------------|
D|-------------------------|------------------------|
A|-------------------------|------------------------|
E|-------------------------|------------------------|
                                    A
    Q.      Q.     S   S  S   S     Q.      Q.      Q     
e|-------------------------------|------------------------|
B|--10--------------------10h-12-|--14------12------10----|
G|----------11------9h-11--------|------------------------|
D|-------------------------------|------------------------|
A|-------------------------------|------------------------|
E|-------------------------------|------------------------|
                              D
    Q.      Q.      Q         Q.      Q.      Q        Q.      Q.     Q     
e|-------------------------|------------------------|-----------------------|
B|--14------12------10s----|--15------14------12----|--10-------------------|
G|-------------------------|------------------------|----------11------9----|
D|-------------------------|------------------------|-----------------------|
A|-------------------------|------------------------|-----------------------|
E|-------------------------|------------------------|-----------------------|

[Solo]
  A 
   S   S S   S  H.             
e|-----------------------------|
B|---------------12~-----------|
G|--------12h-14---------------|
D|--12h-14---------------------|
A|-----------------------------|
E|-----------------------------|

    A                                D
    Q      E   E    Q     E   E      H.            E   E    
e|--------------------------------|-------------------------|
B|---------17---L---------17------|-------------------------|
G|--16b-----L--14b~--L--------16--|--14~------------L--14h--|
D|--------------------------------|-------------------------|
A|--------------------------------|-------------------------|
E|--------------------------------|-------------------------|

    D                         A                                           
    H         Q.      E         H         Q.      E    
e|------------------------|----------------------------|
B|------------------------|----------------------------|
G|--13~\3/-----L------16--|--16g14~--------L------16b--|
D|---Whammy Bar-----------|----------------------------|
A|------------------------|----------------------------|
E|------------------------|----------------------------|

    A                               D
    H.             E      E         Q      Q     E    E.   S   S   S  
e|-------------------------------|------------------------------------|
B|--17b------------17pbr--17pbr--|--15b~----L----17~--15--------------|
G|-------------------------------|-------------------------16p-14h-16-|
D|-------------------------------|------------------------------------|
A|-------------------------------|------------------------------------|
E|-------------------------------|------------------------------------|

    D                                                       A
    S   S  S  S   S  S  S   S  S  S   S  S  S   S  S  S     W                 
e|----------------------------------------------------17b-|--L----------------|
B|--17p-14----17p-14----17p-14----17p-14----17p-14--------|-------------------|
G|---------16--------16--------16--------16--------16-----|-------------------|
D|--------------------------------------------------------|-------------------|
A|--------------------------------------------------------|-------------------|
E|--------------------------------------------------------|-------------------|

[Bridge]
    E
 Yeah, and we could run    
    E    E    E    E    E    E    E    E    
e|------------------------------------------|
B|------------------------------------------|
G|------------------------------------------|
D|---9-------------------9------------------|
A|--(7)--(7)--(7)--(7)--(7)--(7)--(7)--(7)--|
E|------------------------------------------|
 
    E
 like lightning
    E    E    E    E    E    E    E    E    
e|------------------------------------------|
B|------------------------------------------|
G|------------------------------------------|
D|---9-------------------9------------------|
A|--(7)--(7)--(7)--(7)--(7)--(7)--(7)--(7)--|
E|------------------------------------------|

    D
 Through the pouring 
    E    E    E    E    E    E    E    E    
e|------------------------------------------|
B|------------------------------------------|
G|------------------------------------------|
D|--(7)-----------------(7)-----------------|
A|--(5)--(5)--(5)--(5)--(5)--(5)--(5)--(5)--|
E|------------------------------------------|

    A
 rain
    E    E    E    E    E    E    E    E    
e|------------------------------------------|
B|------------------------------------------|
G|------------------------------------------|
D|------------------------------------------|
A|---7-------------------7------------------|
E|--(5)--(5)--(5)--(5)--(5)--(5)--(5)--(5)--|

    E
 And we'll be standing 
    E    E    E    E    E    E    E    E    
e|------------------------------------------|
B|------------------------------------------|
G|------------------------------------------|
D|---9-------------------9------------------|
A|--(7)--(7)--(7)--(7)--(7)--(7)--(7)--(7)--|
E|------------------------------------------|

    E
 like a soldier
    E    E    E    E    E    E    E    E    
e|------------------------------------------|
B|------------------------------------------|
G|------------------------------------------|
D|---9-------------------9------------------|
A|--(7)--(7)--(7)--(7)--(7)--(7)--(7)--(7)--|
E|------------------------------------------|

    B
 Who comes marching 
    E    E    E    E    E    E    E    E    
e|------------------------------------------|
B|------------------------------------------|
G|------------------------------------------|
D|--(4)-----------------(4)-----------------|
A|--(2)--(2)--(2)--(2)--(2)--(2)--(2)--(2)--|
E|------------------------------------------|

    E
 home again
    E    E    E    E    E    E    E    E                                    
e|------------------------------------------|
B|------------------------------------------|
G|------------------------------------------|
D|---9-------------------9------------------|
A|--(7)--(7)--(7)--(7)--(7)--(7)--(7)--(7)--|
E|------------------------------------------|

[Bridge]
     A                                         B
     E  H        Q.        W                   W                 
e|---------------------|-------------------|-------------------|
B|---------------------|-------------------|-------------------|
G|---------------------|-------------------|--4----------------|
D|--7--7--------L------|--L----------------|--4----------------|
A|--7--7--------L------|--L----------------|--2----------------|
E|--5--5--------L------|--L----------------|-------------------|

   D                   A           
   W                   E  H        Q.        W                 
e|-------------------|---------------------|-------------------|
B|-------------------|---------------------|-------------------|
G|--7----------------|---------------------|-------------------|
D|--7----------------|--7--7--------L------|--L----------------|
A|--5----------------|--7--7--------L------|--L----------------|
E|-------------------|--5--5--------L------|--L----------------|

   B                   D
   W                   W                                
e|-------------------|-------------------|
B|-------------------|-------------------|
G|--4----------------|--7----------------|
D|--4----------------|--7----------------|
A|--2----------------|--5----------------|
E|-------------------|-------------------|

[Low Part]
    A
 They ask what it is that i want written
    E    E    E    E    E    E    E    E    
e|------------------------------------------|
B|------------------------------------------|
G|------------------------------------------|
D|------------------------------------------|
A|---7-------------------7------------------|
E|--(5)--(5)--(5)--(5)--(5)--(5)--(5)--(5)--|

            Fill 1
    E    E    E    E    E    E    E    E    
e|------------------------------------------|
B|------------------------------------------|
G|------------------------------------------|
D|------------------------------------------|
A|---7-------------------7------------------|
E|--(5)--(5)--(5)--(5)--(5)--(5)--(5)--(5)--|

 Fill 1
        Q    E  E   E     E  Q     
e|-------7--7--(7)s---9--L----|
B|-------8--8--(8)s--10--L----|
G|----------------------------|
D|----------------------------|
A|----------------------------|
E|----------------------------|

    D
 On the gravestone where I'll lie
    E    E    E    E    E    E    E    E    
e|------------------------------------------|
B|------------------------------------------|
G|------------------------------------------|
D|--(7)-----------------(7)-----------------|
A|--(5)--(5)--(5)--(5)--(5)--(5)--(5)--(5)--|
E|------------------------------------------|

                  Fill 2
    E    E    E    E    E    E    E    E    
e|------------------------------------------|
B|------------------------------------------|
G|------------------------------------------|
D|--(7)-----------------(7)-----------------|
A|--(5)--(5)--(5)--(5)--(5)--(5)--(5)--(5)--|
E|------------------------------------------|

Fill 2
                     |--3--|  |--3--|  |---3--|  |---3--|    
   E  E  E  E  E  E  E  E   E  E   E  E    
|-----------------------------------------|
|-----------------------2p--0-------------|
|------------------------------2p--0------|
|-------------------------------------2h-0|
|-----------------------------------------|
|-----------------------------------------|

    A
 Tell them it's just my bones
    E    E    E    E    E    E    E    E    
e|------------------------------------------|
B|------------------------------------------|
G|------------------------------------------|
D|------------------------------------------|
A|---7-------------------7------------------|
E|--(5)--(5)--(5)--(5)--(5)--(5)--(5)--(5)--|

    A
 That died there
    E    E    E    E    E    E    E    E    
e|------------------------------------------|
B|------------------------------------------|
G|------------------------------------------|
D|------------------------------------------|
A|---7-------------------7------------------|
E|--(5)--(5)--(5)--(5)--(5)--(5)--(5)--(5)--|

   D
So save the tears they'll cry

    E    E    E    E    E    E    E    E    
e|------------------------------------------|
B|------------------------------------------|
G|------------------------------------------|
D|--(7)-----------------(7)-----------------|
A|--(5)--(5)--(5)--(5)--(5)--(5)--(5)--(5)--|
E|------------------------------------------|

    D
    E    E    E    E    E    E    E    E    
e|------------------------------------------|
B|------------------------------------------|
G|------------------------------------------|
D|--(7)-----------------(7)-----------------|
A|--(5)--(5)--(5)--(5)--(5)--(5)--(5)--(5)--|
E|------------------------------------------|

[Brige] 
    E
 My spirit is still 
    E    E    E    E    E    E    E    E    
e|------------------------------------------|
B|------------------------------------------|
G|------------------------------------------|
D|--(9)-----------------(9)-----------------|
A|--(7)--(7)--(7)--(7)--(7)--(7)--(7)--(7)--|
E|------------------------------------------|

    E
 riding somewhere
    E    E    E    E    E    E    E    E    
e|------------------------------------------|
B|------------------------------------------|
G|------------------------------------------|
D|---9-------------------9------------------|
A|--(7)--(7)--(7)--(7)--(7)--(7)--(7)--(7)--|
E|------------------------------------------|

    D
 Somewhere in this 
    E    E    E    E    E    E    E    E    
e|------------------------------------------|
B|------------------------------------------|
G|------------------------------------------|
D|--(7)-----------------(7)-----------------|
A|--(5)--(5)--(5)--(5)--(5)--(5)--(5)--(5)--|
E|------------------------------------------|

    A
 night
    E    E    E    E    E    E    E    E    
e|------------------------------------------|
B|------------------------------------------|
G|------------------------------------------|
D|------------------------------------------|
A|---7-------------------7------------------|
E|--(5)--(5)--(5)--(5)--(5)--(5)--(5)--(5)--|

    E
 When it's these three words 
    E    E    E    E    E    E    E    E    
e|------------------------------------------|
B|------------------------------------------|
G|------------------------------------------|
D|---9-------------------9------------------|
A|--(7)--(7)--(7)--(7)--(7)--(7)--(7)--(7)--|
E|------------------------------------------|

    E
 that come to me
    E    E    E    E    E    E    E    E    
e|------------------------------------------|
B|------------------------------------------|
G|------------------------------------------|
D|---9-------------------9------------------|
A|--(7)--(7)--(7)--(7)--(7)--(7)--(7)--(7)--|
E|------------------------------------------|

    B
 As i kiss this world 
    E    E    E    E    E    E    E    E    
e|------------------------------------------|
B|------------------------------------------|
G|------------------------------------------|
D|--(4)-----------------(4)-----------------|
A|--(2)--(2)--(2)--(2)--(2)--(2)--(2)--(2)--|
E|------------------------------------------|

    E
 goodbye                             Never Say
    E    E    E    E    E    E    E    E    
e|------------------------------------------|
B|------------------------------------------|
G|------------------------------------------|
D|---9-------------------9------------------|
A|--(7)--(7)--(7)--(7)--(7)--(7)--(7)--(7)--|
E|------------------------------------------|

[Chorus]
  A
   Die
    E    E    E    E    E    E    E    E    
e|------------------------------------------|
B|------------------------------------------|
G|------------------------------------------|
D|------------------------------------------|
A|---7-------------------7------------------|
E|--(5)--(5)--(5)--(5)--(5)--(5)--(5)--(5)--|

    A
    E    E    E    E    E    E    E    E    
e|------------------------------------------|
B|------------------------------------------|
G|------------------------------------------|
D|------------------------------------------|
A|---7-------------------7------------------|
E|--(5)--(5)--(5)--(5)--(5)--(5)--(5)--(5)--|

    D
 Never say no
    E    E    E    E    E    E    E    E    
e|------------------------------------------|
B|------------------------------------------|
G|------------------------------------------|
D|--(7)-----------------(7)-----------------|
A|--(5)--(5)--(5)--(5)--(5)--(5)--(5)--(5)--|
E|------------------------------------------|

    D
    E    E    E    E    E    E    E    E    
e|------------------------------------------|
B|------------------------------------------|
G|------------------------------------------|
D|--(7)-----------------(7)-----------------|
A|--(5)--(5)--(5)--(5)--(5)--(5)--(5)--(5)--|
E|------------------------------------------|

    D
 You got to look them in the eye
    E    E    E    E    E    E    E    E    
e|------------------------------------------|
B|------------------------------------------|
G|------------------------------------------|
D|------------------------------------------|
A|---7-------------------7------------------|
E|--(5)--(5)--(5)--(5)--(5)--(5)--(5)--(5)--|

    A
    E    E    E    E    E    E    E    E    
e|------------------------------------------|
B|------------------------------------------|
G|------------------------------------------|
D|------------------------------------------|
A|---7-------------------7------------------|
E|--(5)--(5)--(5)--(5)--(5)--(5)--(5)--(5)--|

    D
 And don't let go
    E    E    E    E    E    E    E    E    
e|------------------------------------------|
B|------------------------------------------|
G|------------------------------------------|
D|--(7)-----------------(7)-----------------|
A|--(5)--(5)--(5)--(5)--(5)--(5)--(5)--(5)--|
E|------------------------------------------|

    D
    E    E    E    E    E    E    E    E    
e|------------------------------------------|
B|------------------------------------------|
G|------------------------------------------|
D|--(7)-----------------(7)-----------------|
A|--(5)--(5)--(5)--(5)--(5)--(5)--(5)--(5)--|
E|------------------------------------------|

    E
 When it's your own blood 
    E    E    E    E    E    E    E    E    
e|------------------------------------------|
B|------------------------------------------|
G|------------------------------------------|
D|---9-------------------9------------------|
A|--(7)--(7)--(7)--(7)--(7)--(7)--(7)--(7)--|
E|------------------------------------------|
 
    E
 you'll bleed
    E    E    E    E    E    E    E    E    
e|------------------------------------------|
B|------------------------------------------|
G|------------------------------------------|
D|---9-------------------9------------------|
A|--(7)--(7)--(7)--(7)--(7)--(7)--(7)--(7)--|
E|------------------------------------------|

    D
 And your own tears
    E    E    E    E    E    E    E    E    
e|------------------------------------------|
B|------------------------------------------|
G|------------------------------------------|
D|--(7)-----------------(7)-----------------|
A|--(5)--(5)--(5)--(5)--(5)--(5)--(5)--(5)--|
E|------------------------------------------|

    A
  you'll cry
    E    E    E    E    E    E    E    E    
e|------------------------------------------|
B|------------------------------------------|
G|------------------------------------------|
D|------------------------------------------|
A|---7-------------------7------------------|
E|--(5)--(5)--(5)--(5)--(5)--(5)--(5)--(5)--|

    E
 When you're brought up to believe
    E    E    E    E    E    E    E    E    
e|------------------------------------------|
B|------------------------------------------|
G|------------------------------------------|
D|---9-------------------9------------------|
A|--(7)--(7)--(7)--(7)--(7)--(7)--(7)--(7)--|
E|------------------------------------------|


    E    E    E    E    E    E    E    E    
e|------------------------------------------|
B|------------------------------------------|
G|------------------------------------------|
D|---9-------------------9------------------|
A|--(7)--(7)--(7)--(7)--(7)--(7)--(7)--(7)--|
E|------------------------------------------|

    B
 That it's the strong who survive
    E    E    E    E    E    E    E    E    
e|------------------------------------------|
B|------------------------------------------|
G|------------------------------------------|
D|--(4)-----------------(4)-----------------|
A|--(2)--(2)--(2)--(2)--(2)--(2)--(2)--(2)--|
E|------------------------------------------|

    E                                          A
                               Never say die  
    E    E    E    E    E    E    E    E       Q.      Q.      Q     
e|------------------------------------------|------------------------|
B|------------------------------------------|--14------12------10----|
G|------------------------------------------|------------------------|
D|---9-------------------9------------------|------------------------|
A|--(7)--(7)--(7)--(7)--(7)--(7)--(7)--(7)--|------------------------|
E|------------------------------------------|------------------------|
                              D
    Q.      Q.      Q         Q.      Q.      Q     
e|-------------------------|------------------------|
B|--14------12------10s----|--15------14------12----|
G|-------------------------|------------------------|
D|-------------------------|------------------------|
A|-------------------------|------------------------|
E|-------------------------|------------------------|
                                    A
    Q.      Q.     S   S  S   S     Q.      Q.      Q     
e|-------------------------------|------------------------|
B|--10--------------------10h-12-|--14------12------10----|
G|----------11------9h-11--------|------------------------|
D|-------------------------------|------------------------|
A|-------------------------------|------------------------|
E|-------------------------------|------------------------|
                              D
    Q.      Q.      Q         Q.      Q.      Q        Q.      Q.     Q     
e|-------------------------|------------------------|-----------------------|
B|--14------12------10s----|--15------14------12----|--10-------------------|
G|-------------------------|------------------------|----------11------9----|
D|-------------------------|------------------------|-----------------------|
A|-------------------------|------------------------|-----------------------|
E|-------------------------|------------------------|-----------------------|

************************************

| h    Hammer-on
| (n)  Ghost note
| ~    Vibrato
| b    Bend
| pbr  Pre-bend release
| g    Grace note
| /    Slide up
| p    Pull-off
| W    whole
| H    half
| Q    quarter
| E    8th
| S    16th
| T    32nd
| X    64th
| .    note dotted
| |-n-|n-tuplets

************************************
Suggest correction
Creating personal tab
Creating personal tab
You can edit any tab online and save it as your Personal.

You can edit, replace or remove any tab part or add personal notes – all changes will be seen only by you.

Personal tabs can be accessed anytime from any device, even offline.
Learn more »
Give kudos to tab author, rate the tab!
1 2 3 4 5
comments
print report bad tab
guest
You may want to rate the tab now too:
select rating
Wanna post a correction for this tab? Suggest correction