Oops, an error
Loading. Please wait.

Queen Of New Orleans intro tab

version 1
version 1

Intro

Whole song

3,077 views 1 this week
2 commentsread comments
1 2 3 4 5
1 last vote to show rating
add to favorites
×
Save as Personal and add changes to this tab that will be seen only by you. Learn more ›
×
You can save this tab as Personal to edit and correct it or add notes. All changes will be seen only by you. Learn more »
launch autoscroll
font size
0
reset
how to read this tab
guitar tuner
edit
Autoscroll
slow
fast
+/-
esc
set tempo
stop
Tuning : Normal

h - Hammer on
b - Bend
r - Release Bend

INTRO

e|4-----4--------------2-----2------------2---2-------2-----2------2-----------|
B|6-----6-----5-4------4-----4-----5-4----2-- 2-------2-----2------2-----------|
G|6-----6--------------4-----4------------3---3-------3-----3------3-----------|
D|6-----6--------------4-----4------------4---4-------2h4---2h4----2-----------|
A|4-----4--------------2-----2------------4---4-------2h4---2h4----2-----------|
E|4-----4--------------2-----2------------2---2-------2------2-----2-----------|

e|4-----4--------------2-----2----------------2---2----------------------------|
B|6-----6-----5-4------4-----4-----5-4------- 2---2------5b7-------------------|
G|6-----6--------------4-----4----------------3---3----------------------------|
D|6-----6--------------4-----4----------------4---4----------------------------|
A|4-----4--------------2-----2----------------4---4----------------------------|
E|4-----4--------------2-----2----------------2---2----------------------------|

e|4-----4--------------2-----2----------------2---2-----------------------------|
B|6-----6-----5-4------4-----4-----5-4------- 2---2-----5b7-4h5-4h5-4h5-4h5-4h5-|
G|6-----6--------------4-----4----------------3---3-----------------------------|
D|6-----6--------------4-----4----------------4---4-----------------------------|
A|4-----4--------------2-----2----------------4---4-----------------------------|
E|4-----4--------------2-----2----------------2---2-----------------------------|

e|4-----4--------------2-----2------------2---2-------2-----2------2-----------|
B|6-----6-----5-4------4-----4-----5-4----2-- 2-------2-----2------2-----------|
G|6-----6--------------4-----4------------3---3-------3-----3------3-----------|
D|6-----6--------------4-----4------------4---4-------2h4---2h4----2-----------|
A|4-----4--------------2-----2------------4---4-------2h4---2h4----2-----------|
E|4-----4--------------2-----2------------2---2-------2------2-----2-----------|

Submitted by Aakreit Sachdeva (KgenExtreme)

            
            
Suggest correction
Creating personal tab
Creating personal tab
You can edit any tab online and save it as your Personal.

You can edit, replace or remove any tab part or add personal notes – all changes will be seen only by you.

Personal tabs can be accessed anytime from any device, even offline.
Learn more »
Give kudos to tab author, rate the tab!
1 2 3 4 5
comments
print report bad tab
2 comments total.
0 reply
Zecromancer 60 Feb 08, 2008 01:05 PM

I'm sorry to be rude, but this sounds nothing like the real song intro.

0 reply
ABABABAB 37 Jan 22, 2010 11:40 AM

can someone tell me how the hell you hold all 6 strings at once?????

guest
Wanna post a correction for this tab? Suggest correction