Oops, an error
Loading. Please wait.

Elephant Parade tab

version 1
version 1

Whole song

Interactive

13,151 views 18 this week
3 commentsread comments
1 2 3 4 5
x 5
add to favorites
×
Save as Personal and add changes to this tab that will be seen only by you. Learn more ›
×
You can save this tab as Personal to edit and correct it or add notes. All changes will be seen only by you. Learn more »
launch autoscroll
font size
0
reset
how to read this tab
guitar tuner
edit
Autoscroll
slow
fast
+/-
esc
set tempo
stop
Author
Difficulty
-------------------------------------------------------------------------------
                             Elephant Parade – Jon Brion
-------------------------------------------------------------------------------
Tabbed by: Anthony Nicaj (ant5111)
Email: an3@geneseo.edu

Very open to suggestions.  

Tuning: Standard

e|---------------------------------------------------------------------------|
B|-----0-------------0-------------0-------------0---------------------------|
G|---------1-------------0-------------2-------------2-----------------------|
D|-------------2---2---2---2-2-------------4-------------4-------------------| X2
A|---2---2---2---0---------------4---4---4-----4---4---4---------------------|
E|-0---------------------------2-------------2-------------------------------|

e|---------------------0-------------------4p0-------------------------------|
B|-------0---------------------0---------------------------------------------|
G|---------1---1-----1-------1-----------------------------------------------|
D|-----2-----2-----2-------2-------------------------------------------------|
A|---------------4-------2---------------------------------------------------|
E|-2/4-----------------------------------------------------------------------|

| /  slide up
| \  slide down
| h  hammer-on
| p  pull-off
| ~  vibrato
| +  harmonic
| x  Mute note
===============================================================================
Suggest correction
Creating personal tab
Creating personal tab
You can edit any tab online and save it as your Personal.

You can edit, replace or remove any tab part or add personal notes – all changes will be seen only by you.

Personal tabs can be accessed anytime from any device, even offline.
Learn more »
comments
print report bad tab
3 comments total.
+1 reply
matddors 396 Jul 16, 2008 02:24 PM

e|----------------------------------|----------------------0------0-3-53-0-|
B|----0-------0-------0-------0-----|-----2-0------------4--2-0------------|
G|-----1-------1--------2-------2---|---1-----1--------14-------1----------|
D|-------2---2---2--------4-------4-|-24--------2----4---------------------|
A|---2--2---0---0----4---4---4---4--|--------------------------------------|
E|-0---------------2-------2--------|--------------------------------------|

just a few tiny corrections in the first part and i added the piano for fun. second part you have for the ending sounds good.

+1 reply
nugiboy 192 Jan 28, 2009 01:37 PM

Good but on your correction here, the piano should end on

0 2 4 2

0 3 5 3

You probably just typed it in wrong.
Great tab

0 reply
ooominhooo 40 Jul 17, 2014 09:16 AM

Lack of accuracy.

guest
You may want to rate the tab now too:
select rating
Wanna post a correction for this tab? Suggest correction