Oops, an error
Loading. Please wait.

Something You Cant Return To tab

28 views 3 this week
no commentswrite comment
1 2 3 4 5
3 more votes to show rating
add to favorites
×
Save as Personal and add changes to this tab that will be seen only by you. Learn more ›
×
You can save this tab as Personal to edit and correct it or add notes. All changes will be seen only by you. Learn more »
launch autoscroll
font size
0
reset
how to read this tab
guitar tuner
edit
Autoscroll
slow
fast
+/-
esc
set tempo
stop
Jon Brion - Something You Cant Return To
from the 'Synecdoche, New York' soundtrack



[Intro]
  Guitar 1                 PM                     PM  x3
e|----||----------------------|----------------------||
B|----||----------------------|----------------------||
G|----||----------------------|----------------------||
D|----||-12---12---12---12----|-12---12---12---12----||
A|----||-12---12---12---12----|-12---12---12---12----||
E|-10-||-------------------10-|-------------------10-||
                     PM
e|----------------------|----------------------|
B|----------------------|----------------------|
G|----------------------|----------------------|
D|-12---12---12---12----|-12---12---<12>-------|
A|-12---12---12---12----|-12---12--------------|
E|-------------------10-|-----------------10-/-|


[A1]

e|--------------------|-------------------|---------------------|-------------------|
B|--------------------|-------------------|---------------------|-------------------|
G|--------------------|-------------------|---------------------|-------------------|
D|-0----0----0----0---|-0----0----0---0---|-0-----0----0----0---|-0---0---0----0----|
A|-13---13---13---13--|-13---13-\-10--10--|-13-12-12--------8---|-7---7---8----9----|
E|-15---15---13---13--|-12---12-\-9---9---|-10----10---10---10--|-9---9---10---10-/-|

e|--------------------|-------------------|--------------------|-------------------|
B|--------------------|-------------------|--------------------|-------------------|
G|--------------------|-------------------|--------------------|-------------------|
D|-0----0----0----0---|-0----0----0---0---|-0----0----0----0---|-0---0---0----0----|
A|-13---13---13-------|-13---13-\-10--10--|-8----8-------------|-------------------|
E|-15---15---13--/17-\|-12---12-\-9---9---|-10---10---10---10--|-9-----/(10)-------|

  Guitar 1
e|--------------------|--------------------|-----------|
B|--------------------|--------------------|-----------|
G|--------------------|--------------------|-----------|
D|-0----0----0----0---|-0----0----0----0---|-0----0----|
A|--------------------|--------------------|-----------|
E|-9----9----10-------|-9---------10-------|-10---10-/-|
  Guitar 2
e|--------------------|--------------------|--------8--|
B|--------------------|--------------------|-7---------|
G|--------------------|--------------------|-----------|
D|--------------------|--------------------|-----------|
A|--------------------|--------------------|-----------|
E|--------------------|--------------------|-----------|

[A2]
  Guitar 1
e|--------------------|-------------------|--------------------|-------------------|
B|--------------------|-------------------|--------------------|-------------------|
G|--------------------|-------------------|--------------------|-------------------|
D|-0----0----0----0---|-0----0----0---0---|-0----0----0----0---|-0---0---0----0----|
A|-13---13---13---13--|-13---13-\-10--10--|-8----8----7----8---|-7---7---8----9----|
E|-15---15---13---13--|-12---12-\-9---9---|-10---10---10---10--|-9---9---10---10-/-|
  Guitar 2
e|-8-\6---------------|-8-\6--------------|-6-\5---------------|-6-\5--------------|
B|--------------------|-------------------|--------------------|-------------------|
G|--------------------|-------------------|--------------------|-------------------|
D|--------------------|-------------------|--------------------|-------------------|
A|--------------------|-------------------|--------------------|-------------------|
E|--------------------|-------------------|--------------------|-------------------|

 Guitar 1
e|--------------------|-------------------|--------------------|-----------------|
B|--------------------|-------------------|-----------8----10--|-----------------|
G|-----------14---14--|-12---12---12------|-10---10------------|---------7---7---|
D|-0----0----0----0---|-0----0----0---0---|-0----0----0----0---|-0---0---0---0---|
A|-13---13---13---13--|-13---13---10--10--|-8----8----8----8---|-7---7---8---8---|
E|-15---15---13---13--|-12---12---9---9---|-10---10------------|-9---9---8---8---|
  Guitar 2
e|-8-\6---------------|-8-\6--------------|-6-\5---------------|-6-\5--------------|
B|--------------------|-------------------|--------------------|-------------------|
G|--------------------|-------------------|--------------------|-------------------|
D|--------------------|-------------------|--------------------|-------------------|
A|--------------------|-------------------|--------------------|-------------------|
E|--------------------|-------------------|--------------------|-------------------|

[B]
 Guitar 1
e|----------------|--------------------|----------------|-------------------|
B|----------------|--------------------|----------------|-------------------|
G|-7---7---7---7--|--------------------|----------------|-------------------|
D|-0---0---0---0--|-8--------------7---|----------------|-------------------|
A|-7---7---7---7--|-6------------------|----------------|-------------------|
E|-7---7---7---7--|-6------6-\5--------|-5--------------|---------------5-/-|
  Guitar 2
e|-5-\4-----------|-3/4--3---------5---|----------------|-------------------|
B|----------------|---------4----------|----------------|-------------------|
G|----------------|-----------3/6------|----------------|-------------------|
D|----------------|--------------------|----------------|-------------------|
A|----------------|--------------------|----------------|-------------------|
E|----------------|--------------------|----------------|-------------------|

 Guitar 1
e|-------------------|----------------------|
B|-------------------|----------------------|
G|-------------------|----------------------|
D|-0----0----0----0--|-0----0----0----0-----|
A|-------------------|----------------------|
E|-10---10---9----9--|-10---10---10---10-/--|
  Guitar 2
e|-------------------|----------------8-----|
B|-------------------|------------7---------|
G|-------------------|----------------------|
D|-------------------|----------------------|
A|-------------------|----------------------|
E|-------------------|----------------------|

[A3]
  Guitar 1
e|----------------------|---------------------|--------------------|--------------------|
B|----------------------|---------------------|--------------------|--------------------|
G|----------------------|---------------------|--------------------|--------------------|
D|-0----0------0----0---|-0----0------0---0---|-0----0----0----0---|-0---0----0----0----|
A|-13---13-----13---13--|-13---13---\-10--10--|-8----8----8----8---|-7---7----8----9----|
E|-15---15--15-13---13--|-12---12-12\-9---9---|-10---10---10---10--|-9---9--9-10---10-/-|
  Guitar 2
e|-8-\6-----------------|-8-\6----------------|-6-\5---------------|-6-\5---------------|
B|----------------------|---------------------|--------------------|--------------------|
G|----------------------|---------------------|--------------------|--------------------|
D|----------------------|---------------------|--------------------|--------------------|
A|----------------------|---------------------|--------------------|--------------------|
E|----------------------|---------------------|--------------------|--------------------|

  Guitar 1
e|----------------------|---------------------|--------------------|-----------------|
B|----------------------|---------------------|--------------------|-----------------|
G|----------------------|------12-----12------|-----------9----10--|-6-------7---7---|
D|-0----0------0----0---|-0----0------0---0---|-0----0----0----0---|-0---0---0---0---|
A|-13---13-----13---13--|-13---13-----10--10--|-8----8----8----8---|-7---7---8---8---|
E|-15---15--15-13---13--|-12---12--12\9---9---|-10---10---10---10--|-9---9---8---8---|
  Guitar 2
e|-8-\6-----------------|-8-\6----------------|-6-\5---------------|-6-\5------------|
B|----------------------|---------------------|--------------------|-----------------|
G|----------------------|---------------------|--------------------|-----------------|
D|----------------------|---------------------|--------------------|-----------------|
A|----------------------|---------------------|--------------------|-----------------|
E|----------------------|---------------------|--------------------|-----------------|

[B2]
 Guitar 1
e|----------------|--------------------|--------------------|
B|----------------|--------------------|--------------------|
G|-7---7---7---7--|--------------------|--------------------|
D|-0---0---0---0--|-8--------------7---|-0---0--------------|
A|-7---7---7---7--|-6------------------|---------/9---/15---|
E|-7---7---7---7--|-6------6-\5--------|--------------------|
  Guitar 2
e|-5-\4-----------|-3/4--3--------/5---|--------------------|
B|----------------|---------4----------|--------------------|
G|----------------|-----------3/6------|-7------------------|
D|----------------|--------------------|--------------------|
A|----------------|--------------------|--------------------|
E|----------------|--------------------|--------------------|

[Outro]

e|----------------------|-------------------|--------------------|------------------|
B|----------------------|-------------------|--------------------|------------------|
G|----------------------|-------------------|--------------------|------------------|
D|-0------0----0----0---|-0----0----0---0---|-0----0----0----0---|-0---0---0----0---|
A|-15p13--13---13---13--|-13---13-\-10--10--|-8----8-------------|------------------|
E|-15-----15---13---13--|-12---12-\-9---9---|-10---10---10---10--|-9---9---10---10--|


e|----------------------|
B|----------------------|
G|----------------------|
D|-0---(0)---0----------|
A|----------------------|
E|-9---(9)---10---------|



-Guitar 1 is two different rhythm guitars
-Guitar 2 is played with a slide
-Hope this is helpful


************************************

| (n) Ghost note
| h   Hammer-on
| p   Pull-off
| /   Slide up
| \   Slide down
| PM  Palm mute


************************************

            
            
Suggest correction
Creating personal tab
Creating personal tab
You can edit any tab online and save it as your Personal.

You can edit, replace or remove any tab part or add personal notes – all changes will be seen only by you.

Personal tabs can be accessed anytime from any device, even offline.
Learn more »
Give kudos to tab author, rate the tab!
1 2 3 4 5
comments
print report bad tab
guest
You may want to rate the tab now too:
select rating
Wanna post a correction for this tab? Suggest correction