Oops, an error
Loading. Please wait.

David Livingstone tab

58 views 6 this week
no commentswrite comment
1 2 3 4 5
3 more votes to show rating
add to favorites
×
Save as Personal and add changes to this tab that will be seen only by you. Learn more ›
×
You can save this tab as Personal to edit and correct it or add notes. All changes will be seen only by you. Learn more »
launch autoscroll
font size
0
reset
how to read this tab
guitar tuner
edit
Autoscroll
slow
fast
+/-
esc
set tempo
stop
Standard Tuning
Capo 6

[Intro]
    G                       C
e|-----------------------------------------------------------------|
B|--------0-----------0-----------1-----------1--------------------|
G|------------0-------0---0-----------0-------0--------------------|
D|----0-------------0-----0-0h2-----------2-----2-0-0--------------|
A|--------------0h2-----2---2/3-3---3---3---3----------------------|
E|--3---3---3------------------------------------------------------|

    G                       C
e|-----------------------------------------------------------------|
B|--------0-----------0-----------1-----------1--------------------|
G|------------0-------0---0-----------0-------0--------------------|
D|----0-------------0-----0-0h2-----------2-----2-0-0--------------|
A|--------------0h2-----2---2/3-3---3---3---3----------------------|
E|--3---3---3------------------------------------------------------|

    G                                   D
e|-----------------------------------------------------------------|
B|--------0-----------0-----------0-----------0--------------------|
G|------------0-----------0-----------0---2-----0-0----------------|
D|----0-----------0-----------0---------0---0------0---------------|
A|-----------------------------------------------------------------|
E|--3---3---3---3---3---3---3---3---3------------------------------|

    C                         Dno5add4
e|-----------------------------------------------------------------|
B|--0h1-----1-------1----------/3~---3-----------3-----------------|
G|------0-------0-------0----------------0-----------0-------------|
D|--------------------------2--/4~-----------4-----------4---------|
A|--2/3---3---3---3---3---3---3/5~-5---5---5---5---5---5-----------|
E|-----------------------------------------------------------------|

e|-----------------------------------------------------------------|
B|----3-----------3------------------------------------------------|
G|--------0-----------0--------------------------------------------|
D|------------4-----------4----------------------------------------|
A|--5---5---5---5---5---5------------------------------------------|
E|-----------------------------------------------------------------|
                      You be 

[Verse 1]
    G                       C
e|-----------------------------------------------------------------|
B|--------0-----------0-----------1-----------1--------------------|
G|------------0-------0---0-----------0-------0--------------------|
D|----0-------------0-----0-0h2-----------2-----2-0-0--------------|
A|--------------0h2-----2---2/3-3---3---3---3----------------------|
E|--3---3---3------------------------------------------------------|
    A mystery and I will uncover the truth

    G                       C
e|-----------------------------------------------------------------|
B|--------0-----------0-----------1-----------1--------------------|
G|------------0-------0---0-----------0-------0--------------------|
D|----0-------------0-----0-0h2-----------2-----2-0-0--------------|
A|--------------0h2-----2---2/3-3---3---3---3----------------------|
E|--3---3---3------------------------------------------------------|

    G                       C
e|-----------------------------------------------------------------|
B|--------0-----------0-----------1----------/3~---3---------------|
G|------------0-------0---0-----------0----------------0-----------|
D|----0-------------0-----0-0h2-----------2--/4~-----------4-------|
A|--------------0h2-----2---2/3-3---3---3---3/5~-5---5---5---------|
E|--3---3---3------------------------------------------------------|
    You be the chorus and I’ll be the verse to go through 

e|-----------------------------------------------------------------|
B|----3-----------3-----------3------------------------------------|
G|--------0-----------0--------------------------------------------|
D|------------4-----------4----------------------------------------|
A|--5---5---5---5---5---5---5---5----------------------------------|
E|-----------------------------------------------------------------|

    C                         Dno5add4
e|-----------------------------------------------------------------|
B|--0h1-----1-------1----------/3~---3-----------3-----------------|
G|------0-------0-------0----------------0-------0-----------------|
D|--------------------------2--/4~-----------4---------------------|
A|--2/3---3---3---3---3---3---3/5~-5---5---5---5---5---------------|
E|-----------------------------------------------------------------|
    You be the dynamite blasting away at the 

    G           D           G
e|-----------------------------------------------------------------|
B|--------0-----------0-----------0-----------0--------------------|
G|------------0---2-------2-------0---0-------0---0----------------|
D|----0---------0---0---0-----0-------------0-----0----------------|
A|--------------------------------------0h2-----2------------------|
E|--3---3---3---------------3---3---3------------------------------|
    Walls we take apart 

    C                           D                   
e|-----------------------------------------------------------------|
B|--0h1-----1-------1----------/3~---3-----------3-----------------|
G|------0-------0-------0----------------0-------0-----------------|
D|--------------------------2--/4~-----------4---------------------|
A|--2/3---3---3---3---3---3---3/5~-5---5---5---5---5---------------|
E|-----------------------------------------------------------------|
    You be Dave Livingstone and I’ll be his African

[Interlude 1]
    G             C           G 
e|-----------------------------------------------------------------|
B|--------0-------------1-----------0-----------0------------------|
G|----------------------0---------------0-----------0--------------|
D|----0-------0---0h2-------2---0-----------0----------------------|
A|-----------------------------------------------------------------|
E|--3---3---3---3-----3---3---3---3---3---3---3---3----------------|
    Heart

    G             C           G 
e|-----------------------------------------------------------------|
B|--------0-------------1-----------0-----------0------------------|
G|----------------------0---------------0-----------0--------------|
D|----0-------0---0h2-------2---0-----------0----------------------|
A|-----------------------------------------------------------------|
E|--3---3---3---3-----3---3---3---3---3---3---3---3----------------|

[Verse 2]
You be my walker and stay with me as I grow frail 
You be the wind and direct me when I lose sail 
You be the resonance pulsing through every nerve that fails my knees 
You be John Lennon and I’ll be the world that he sees 

[Interlude 2]
    G             C           G 
e|-----------------------------------------------------------------|
B|--------0-------------1-----------0-----------0------------------|
G|----------------------0---------------0-----------0--------------|
D|----0-------0---0h2-------2---0-----------0----------------------|
A|-----------------------------------------------------------------|
E|--3---3---3---3-----3---3---3---3---3---3---3---3----------------|

[Chorus]
    C                           D
e|-----------------------------------------------------------------|
B|--0h1-----1-------1----------/3~---3-----------3-----------------|
G|------0-------0-------0----------------0-------0-----------------|
D|--------------------------2--/4~-----------4---------------------|
A|--2/3---3---3---3---3---3---3/5~-5---5---5---5---5---------------|
E|-----------------------------------------------------------------|
    Sweet midsummer nights 

    G            D           G
e|------------------------------------------------------------------|
B|--------0------------0-----------3-----------3--------------------|
G|------------0----2-------2-----------0-----------0----------------|
D|----0----------0---0---0-----0-----------0------------------------|
A|------------------------------------------------------------------|
E|--3---3---3----------------3---3---3---3---3---3------------------|
    With you in my life 

    C              
e|------------------------------------------------------------------|
B|----1-----------1-----------1-------------------------------------|
G|--------0-----------0-----------0---------------------------------|
D|------------2-----------2-----------2-----------------------------|
A|--3---3---0---3---3---0---3---3---0-------------------------------|
E|------------------------------------------------------------------|
    With you in my life 

e|------------------------------------------------------------------|
B|----1-----------1-------------------------------------------------|
G|--------0-----------0-------0---0---------------------------------|
D|------------2-----------2---2---0---------------------------------|
A|--3---3---0---3---3---0---0---0-----------------------------------|
E|------------------------------------------------------------------|

[Interlude 3]
    G           C             G 
e|-----------------------------------------------------------------|
B|--------0-------------1-----------0-----------0------------------|
G|----------------------0---------------0-----------0--------------|
D|----0-------0---0h2-------2---0-----------0----------------------|
A|-----------------------------------------------------------------|
E|--3---3---3---3-----3---3---3---3---3---3---3---3----------------|

[Verse 3]
You be a flask and I’ll be the comfort you hold 
You can be stranded and I’ll bring you in from the cold 
You be the ambulance racing me back down that old familiar road
You be Theresa and I’ll be your hands to the poor 

[Interlude 4]
    G             C           G 
e|-----------------------------------------------------------------|
B|--------0-------------1-----------0-----------0------------------|
G|----------------------0---------------0-------0---0--------------|
D|----0-------0---0h2-------2---0-------------0-----0--------------|
A|----------------------------------------0h2-----2----------------|
E|--3---3---3---3-----3---3---3---3---3----------------------------|

[Chorus]
    C                           D
e|-----------------------------------------------------------------|
B|--0h1-----1-------1----------/3~---3-----------3-----------------|
G|------0-------0-------0----------------0-------0-----------------|
D|--------------------------2--/4~-----------4---------------------|
A|--2/3---3---3---3---3---3---3/5~-5---5---5---5---5---------------|
E|-----------------------------------------------------------------|
    Sweet midsummer nights 

    G            D           G
e|------------------------------------------------------------------|
B|--------0------------0-----------3-----------3--------------------|
G|------------0----2-------2-----------0-----------0----------------|
D|----0----------0---0---0-----0-----------0------------------------|
A|------------------------------------------------------------------|
E|--3---3---3----------------3---3---3---3---3---3------------------|
    With you in my life 

    C              
e|------------------------------------------------------------------|
B|----1-----------1-----------1-------------------------------------|
G|--------0-----------0-----------0---------------------------------|
D|------------2-----------2-----------2-----------------------------|
A|--3---3---0---3---3---0---3---3---0-------------------------------|
E|------------------------------------------------------------------|
    With you in my life 

e|------------------------------------------------------------------|
B|----1-----------1-------------------------------------------------|
G|--------0-----------0-------0---0---------------------------------|
D|------------2-----------2---2---0---------------------------------|
A|--3---3---0---3---3---0---0---0-----------------------------------|
E|------------------------------------------------------------------|

[Verse 4]
You be a train track and I’ll never leave you for long 
You be new land, and I’ll plot my home in your arms 
You be the coffee that brings me to life in the early winter blue 
You be my lady and I’ll be your man through and through

[Interlude 5]
    G
e|-----------------------------------------------------------------|
B|--------0-----------------------0-----------0--------------------|
G|------------0-------2---------------0-------0---0----------------|
D|----0-------------------0---0-------------0-----0----------------|
A|----------------0---------------------0h2-----2------------------|
E|--3---3---3---2---2---2---3---3---3------------------------------|

    C                           D 
e|-----------------------------------------------------------------|
B|--0h1-----1-------1----------/3~---3-----------3-----------------|
G|------0-------0-------0----------------0-----------0-------------|
D|--------------------------2--/4~-----------4-----------4---------|
A|--2/3---3---3---3---3---3---3/5~-5---5---5---5---5---5-----------|
E|-----------------------------------------------------------------|
    You be my lady and I’ll be your man through and through

[Ending]
    G           C               G 
e|-----------------------------------------------------------------|
B|--------0-------------1---1p0-----0------------------------------|
G|------------0---------0-----------0------------------------------|
D|----0-----------0h2-------2p0---0-0------------------------------|
A|----------------------------------2------------------------------|
E|--3---3---3---3-----3---3-----3---3------------------------------|


************************************

| h  Hammer-on
| /  Slide up
| ~  Vibrato
| p  Pull-off

************************************

            
            
Suggest correction
Creating personal tab
Creating personal tab
You can edit any tab online and save it as your Personal.

You can edit, replace or remove any tab part or add personal notes – all changes will be seen only by you.

Personal tabs can be accessed anytime from any device, even offline.
Learn more »
Give kudos to tab author, rate the tab!
1 2 3 4 5
comments
print report bad tab
guest
You may want to rate the tab now too:
select rating
Wanna post a correction for this tab? Suggest correction