Oops, an error
Loading. Please wait.

Only Hope Acoustic tab

19,994 views 9 this week
4 commentsread comments
1 2 3 4 5
x 3
add to favorites
×
Save as Personal and add changes to this tab that will be seen only by you. Learn more ›
×
You can save this tab as Personal to edit and correct it or add notes. All changes will be seen only by you. Learn more »
launch autoscroll
font size
0
reset
how to read this tab
guitar tuner
edit
Autoscroll
slow
fast
+/-
esc
set tempo
stop
This tab is 100% accurate - It is exactly as Jon Foreman plays it live. Please credit me 
footsoldier1989 if you choose to use this tab anywhere. It's the only accurate version 
there.

Chords:

E: x79900
B: 799000
A:577000
C#: x46600
C (it's really a Csus: x35500
G/A: 300200
C/A: x32200
Asus: 002200
F#:244300

/ slide up
\ slide down
h hammer on
p pull off


 Intro/Verse
|---------------------------------------------------------------------------|
|-----------------------------------------------3-------3---------3---------|
|--------7-------4----------------------------0---0---0---0-----0---------4-|
|------5---5---5---5-------7---7\-------4-------------------------------4---|
|--5/7-------------------5---5--------2---2-3---------------2h3-----3-2-----|
|------------3-------5/7------------0---------------3-----------------------|

----------|
----------|
----------|.
--4-------|. 2x for intro/4x for verse
----------|
----------|


Verse One:
There's a song that's inside of my soul
It's the one that I've tried to write over and over again
I'm awake in the infinite cold
but you sing to me over and over and over again

Chorus:

      E      B         A   B
So I lay my head back down

       E        B        A           C#
And I lift my hands and pray, to be only yours

   A          C#            C   (let ring)
I pray to be only yours, I know now you're my only hope

Verse Two:

Sing to me of the song of the stars
Of your galaxy dancing and laughing and laughing again
When it feels like my dreams are so far
Sing to me of the plans that you have for me over again

Chorus

Bridge: (the last four chords here are strummed, but I didn't put in all the strumming, 
play it and you'll know how)

|-------------------------------------0--0---0-0---------------------------|
|-------------------------------------3--3---3-0---------------------------|
|------7-7---4-4----------------------0--0---0-4---------------------------|
|------5-5---5-5-----7-7-7\---4-4-----0--0---0-4---------------------------|
|--5/7---------------5-5------2-2-2-3-3--x-2h3-2---------------------------|
|----------3-----5/7--------0------------3---------------------------------|

G/A           C/A
I give you my apathy

G/A            C/A
I'm giving you all of me

G/A           C/A      Asus              F#
I want your symphony singing in all that I am

       A               B
At the top of my lungs

    A              B
I'm giving it back

      E
And I lay...(back to Chorus)

Outro:

you just play the intro a few times then end on an E chord.

            
            
Suggest correction
Creating personal tab
Creating personal tab
You can edit any tab online and save it as your Personal.

You can edit, replace or remove any tab part or add personal notes – all changes will be seen only by you.

Personal tabs can be accessed anytime from any device, even offline.
Learn more »
Give kudos to tab author, rate the tab!
1 2 3 4 5
comments
print report bad tab
4 comments total. Showing first comments.
0 reply
Apprentice_Anak 10 Oct 04, 2007 06:09 PM

Is there a certain video(s) you learned this from that you could maybe link us to so we can watch him? It helps me learn better.

0 reply
cyc 10 Apr 23, 2008 03:55 PM

The intro is almost right, it should be Intro/Verse
|---------------------------------------------------------------------------|
|-----------------------------------------------3-------3---------3---------|
|--------7-------4----------------------------0---0---0---0-----0---------2-|
|------5-------0---0-------7------------4-------------------------------0---|
|--5/7-------------------9------------2---2-3---------------2h3-----3-2-----|
|------------3-------5/7------------0---------------3-----------------------|

0 reply
cyc 10 Apr 23, 2008 03:55 PM

The intro is almost right, it should be Intro/Verse
|---------------------------------------------------------------------------|
|-----------------------------------------------3-------3---------3---------|
|--------7-------4----------------------------0---0---0---0-----0---------2-|
|------5-------0---0-------7------------4-------------------------------0---|
|--5/7-------------------9------------2---2-3---------------2h3-----3-2-----|
|------------3-------5/7------------0---------------3-----------------------|

guest
You may want to rate the tab now too:
select rating
Wanna post a correction for this tab? Suggest correction