Oops, an error
Loading. Please wait.

Somebodys Baby tab

version 1
version 1

Whole song

25,837 views 15 this week
2 commentsread comments
1 2 3 4 5
x 18
add to favorites
×
Save as Personal and add changes to this tab that will be seen only by you. Learn more ›
×
You can save this tab as Personal to edit and correct it or add notes. All changes will be seen only by you. Learn more »
launch autoscroll
font size
0
reset
how to read this tab
guitar tuner
edit
Autoscroll
slow
fast
+/-
esc
set tempo
stop
     Artist:Jon Foreman
     Album:Winter-EP
    I first tabbed the song under switchfoot but now it's were should be and it is 100% correct.

     Intro
   e|--------------------------------------------|
   B|---0-----0---0-----0---0-----0---0-----0----|
   G|----0---0-0---0---0-0---0---0-0---0---0-0---|
   D|-----0h2-------0h2-------0h2-------0h2------|
   A|-3---------3---------3---------3------------|
   E|--------------------------------------------|
     Verse 1(4x)
   e|-------------------------------------------------------------|
   B|---0-----0---0-----0---0-----0---0-----0--0-----0---0-----0--|
   G|----0---0-0---0---0-0---0---0-0---0---0-0--0---0-0---0---0-0-|
   D|-----0h2-------0h2-------0h2-------0h2------0h2-------0h2----|
   A|-3---------3---------0---------0-----------------------------|
   E|-----------------------------------------1--------1----------|
     She yells,"If your homeless/Sure as hell you'd be drunk/Or high trying to get there
begging for junk/When the people don't want you /They just throw you money for beer/Her
was November/She went by Autumn or fall/It's been seven long years since the autumn 
her nightmares grew fingers and all of her dreams grew tears

     Chorus:(x2)
e|------------------------------------------|
B|---1-----1---1-----1---1-----1---1-----1--|
G|--0-0---0-0-0-0---0-0---0---0-0---0---0-0-|
D|-----0h2-------0h2-------0h2-------0h2----|
A|---------------------0---------0----------|
E|-1---------1------------------------------|
**On the second time on the chorus, play this;
e|----------------------------------------|
B|---1-----1---1-----1---1-----1---0---0--|
G|--0-0---0-0-0-0---0-0---0---0-0-0-0-0-0-|
D|-----0h2-------0h2-------0h2------------|
A|---------------------0---------2--------|
E|-1---------1-----------------------3----|    
  She's somebody's baby/Somebody's baby girl/She's somebody's baby/Somebody's baby
  And she's somebody's baby still 
  
   Post-Chorus
   e|----------------------|
   B|---0-----0---0-----0--|
   G|----0---0-0---0---0-0-|
   D|-----0h2-------0h2----|
   A|-3---------3----------|
   E|----------------------|

     Verse 2:(play verse part again with these words)
   She yells if you've never gone it alone/Well then you better throw the first
got one lonely stoner waiting to bring her to her knees/She dreams about heaven/Remembering
a nightmare she visits and knows all too well/And know and again/When she's sober she 
her teeth

     Chorus
     
     Instrumental: For the first half, play the Verse once then continue to the Post-Chorus
                   For the second half, play the chorus in its entirety (with both parts)
     Post-Chorus
     
     Verse 3:(Note; This verese is very different from the rest)
   e|--------------------------------------------------------------------------------|
   B|--------------------------------------------------------------------------------|
   G|---00--------00--------00--------00-------00--------00--------00--------00----0-|
   D|-----0h2-------0h2-------0h2-------0h2------0h2-------0h2-------0h2-------0h22-2|
   A|-3---------3---------0---------0----------------------------3---------3---------|
   E|-----------------------------------------1--------1-----------------------------|
     
   e|---------------------------------------------------------------------------------|
   B|---------------------------------------------------------------------------------|
   G|---00--------00--------00--------00-------00--------00----0---00----0----00----0-|
   D|-----0h2-------0h2-------0h2-------0h2------0h2-------0h22-2----0h22-------0h22--|
   A|-3---------3---------0---------0----------------------------3---------3----------|
   E|-----------------------------------------1--------1------------------------------|

    Today was her birthday strangely enough/When the cops found her body at the foot of
bluff/The anonymous call to slowly tip off the police/They got her I.D. from her dental
same fillings in tact the same nicotine stains/The birth to the death were both with no 
around to grieve

     Chorus: (x2) (Note; This chorus is slightly different from the rest)
e|-------------------------------------------|
B|---1-----1---1-----1---1-----1---1-----1p0-|
G|--0-0---0-0-0-0---0-0---0---0-0---0---0----|
D|-----0h2-------0h2-------0h2-------0h2-----|
A|---------------------0---------0-----------|
E|-1---------1-------------------------------|
**On the second time on the chorus, play this;
e|----------------------------------------|
B|---1-----1---1-----1---1-----1---1---0--|
G|--0-0---0-0-0-0---0-0---0---0-0-0-0-0-0-|
D|-----0h2-------0h2-------0h2------------|
A|---------------------0---------2--------|
E|-1---------1-----------------------3----|    
  
      Outro
    (Play this first part once)
   e|---3---------3---------3---------3------|
   B|----1---------1----1----1---------1--1--|
   G|---------0--------0-0--------0------0-0-|
   D|-----0h22-2----0h2-------0h22-2---------|
   A|-3---------3---------0---------0---2----|
   E|----------------------------------------|
    (Repeat this second part 4 times)
   e|---3---------3---------3----------------|
   B|----1---------1----1----1--------1---1--|
   G|---------0--------0-0--------0--0-0-0-0-|
   D|-----0h22-2----0h2-------0h22-2---------|
   A|-3---------3---------0---------2--------|
   E|-----------------------------------3----|

And end on C major

   e|-0-------|
   B|-1-------|
   G|-0-------|
   D|-2-------|
   A|-3-------|
   E|---------|



      That's it.The Fall and Winter EP come out together on Jan.14,'08.
                                                             -Josh
*Last edited: 4/21/17 by Ryan McDaniel*

            
            
Suggest correction
Creating personal tab
Creating personal tab
You can edit any tab online and save it as your Personal.

You can edit, replace or remove any tab part or add personal notes – all changes will be seen only by you.

Personal tabs can be accessed anytime from any device, even offline.
Learn more »
comments
print report bad tab
2 comments total.
0 reply
burnaftermore 31 Feb 10, 2008 02:06 PM

This is a GREAT tab! Thanks for tabbing it out!

0 reply
jaymizzle13 10 Jul 14, 2008 01:49 PM

Intro
e|--------------------------------------------|
B|---0-----0---0-----0---0-----0---0-----0----|
G|--------0-0-------0-0-------0-0-------0-0---|
D|-----0h2-------0h2-------0h2-------0h2------|
A|-3---------3---------3---------3------------|
E|--------------------------------------------|

i think its actually that though, but reallly good job on the tab!!

guest
You may want to rate the tab now too:
select rating
Wanna post a correction for this tab? Suggest correction