Oops, an error
Loading. Please wait.

Somebodys Baby tab

version 4
version 4

Whole song

37 views 1 this week
no commentswrite comment
1 2 3 4 5
3 more votes to show rating
add to favorites
×
Save as Personal and add changes to this tab that will be seen only by you. Learn more ›
×
You can save this tab as Personal to edit and correct it or add notes. All changes will be seen only by you. Learn more »
launch autoscroll
font size
0
reset
how to read this tab
guitar tuner
edit
Autoscroll
slow
fast
+/-
esc
set tempo
stop
Author
Difficulty
I actually tune the low E sting a half−step UP (to F) but I don't know how to put that in the 
options. I also like to put the capo on 2.
The tempo is a bit strange, so listen to the song for timing.

Tuning: F A D G B e


[Intro] 

e|------------------------------------------|
B|---0-----0---0-----0---0-----0---0-----0--|
G|--0-0---0-0-0-0---0-0-0-0---0-0-0-0---0-0-|
D|-----0h2-------0h2-------0h2-------0h2----|
A|-3---------3---------3---------3----------|
F|------------------------------------------|


[Verse]

e|--------------------------------------------------−------------------------−−−−−−−|
B|---0-----0---0−----0---0-----0---0-----0---0-----0---0-----0---0---−−0---0-−−−−0−−|
G|--0-0---0-0-0-0−--0-0-0-0---0-0-0-0---0-0-0-0---0-0-0-0---0-0-0-0-−−0-0-0-0−−−0−0−|(x2)
D|-----0h2-------0h2-------0h2-------0h2-------0h2-------0h2-------0h2-------0h2−−−−|
A|-3---------3---------0---------0-----------------------------3---------3---−−−−−−−|
F|-----------------------------------------0---------0-----------------------−−−−−−−|

She yells, "If you were homeless, sure as hell you'd be drunk, 
Or high or trying to get there, or begging for junk.
When the people don't want you they just throw you money for beer."

Her name was November, she went by Autumn or Fall.
It was 7 long years since the Autumn when all of her 
Nightmares grew fingers and all of her dreams grew a tear


[Chorus]

e|---------------------------------------------------------------------------−−−−−−−−−|
B|---1-----1---1-----1---1--−−-1---1-----1p0-1--1-----1---1-----1---1-----1--−1−−−−−1−|
G|--0-0---0-0-0-0---0-0-0-0−−-0-0-0-0---0------0-0---0-0-0-0---0-0-0-0−−−0-0-0−0−−−0−0|
D|-----0h2-------0h2-------0h2-------0h2----------0h2-------0h2-------0h2-−−-−−−0h2−−−|
A|---------------------0-----−−−-0--------------------------------0----------−−−−−−−−−|
F|-0---------0--------------------------------0---------0-------------------2−−−−−−−−−|

She's somebody's baby, somebody's baby girl
She's somebody's baby, somebody's baby girl
And she's somebody's baby still

e|----------------------|
B|---1-----1---1-----1--|
G|--0-0---0-0-0-0---0-0-|
D|-----0h2-------0h2----|
A|-3---------3----------|
F|----------------------|
  

[2nd Verse is the same as 1st]

She screams, "Well if you've never gone it alone, well then 
Go ahead you better throw the first stone. You got 
One lonely stoner, waiting to bring to her knees."

She dreams about heaven, remembering hell as the 
Nightmare she visits and knows all too well. Every 
Now and again, when she's sober, she brushes her teeth.


[Chorus]

e|---------------------------------------------------------------------------−−−−−−−−−|
B|---1-----1---1-----1---1--−−-1---1-----1p0-1--1-----1---1-----1---1-----1--−1−−−−−1−|
G|--0-0---0-0-0-0---0-0-0-0−−-0-0-0-0---0------0-0---0-0-0-0---0-0-0-0−−−0-0-0−0−−−0−0|
D|-----0h2-------0h2-------0h2-------0h2----------0h2-------0h2-------0h2-−−-−−−0h2−−−|
A|---------------------0-----−−−-0--------------------------------0----------−−−−−−−−−|
F|-0---------0--------------------------------0---------0-------------------2−−−−−−−−−|

She's somebody's baby, somebody's baby girl
She's somebody's baby, somebody's baby girl
And she's somebody's baby still

e|----------------------|
B|---1-----1---1-----1--|
G|--0-0---0-0-0-0---0-0-|
D|-----0h2-------0h2----|
A|-3---------3----------|
F|----------------------|


[Bridge]

e|--------------------------------------------------−-------------------------------|
B|---0-----0---0−----0---0-----0---0-----0---0-----0---0-----0---1-----1---1-----1--|
G|--0-0---0-0-0-0−--0-0-0-0---0-0-0-0---0-0-0-0---0-0-0-0---0-0-0-0---0-0-0-0---0-0-|
D|-----0h2-------0h2-------0h2-------0h2-------0h2-------0h2-------0h2-------0h2----|
A|-3---------3---------0---------0-----------------------------3---------3----------|
F|-----------------------------------------0---------0--------−−−−−−−−−−−−−−−−−−−−−−|

Or just play the chorus.

(I think the bridge can be just once or twice since you will probably be playing an acoustic version, 
but you can play it as many times as you want.)


[3rd Verse]

e|--------------------------------------------------−------------------------−−−|
B|---0-------−-0−----−--0-----−--0--------0--------0-----0---0---−−0---0-−−−−0−−|
G|---−0----−−-−−0-−−−−−--0-−−−−−−−0−−−−−−−−0−−−−−−−−0−−−0−0−0−0−−−0−0−0−0−−−0−0−|(x2)
D|-----0h2-----−−0h2------0h2------0h2------0h2------0h2-------0h2-------0h2−−−−|
A|-3---------3----−−−−-0--------0--------------------------3---------3---−−−−−−−|
F|-------------------------------------−-0--------0-----------------------−−−−−−|

Today was her birthday, strangely enough, when the cops found her body at the foot of a bluff.
The anonymous caller this morning tipped off the police
They got her ID from her dental remains. The same fillings intact, the same nicotine stains.
The birth and the death were both over with no one to grieve.


[Chorus]

e|---------------------------------------------------------------------------−−−−−−−−−|
B|---1-----1---1-----1---1--−−-1---1-----1p0-1--1-----1---1-----1---1-----1--−1−−−−−1−|
G|--0-0---0-0-0-0---0-0-0-0−−-0-0-0-0---0------0-0---0-0-0-0---0-0-0-0−−−0-0-0−0−−−0−0|
D|-----0h2-------0h2-------0h2-------0h2----------0h2-------0h2-------0h2-−−-−−−0h2−−−|
A|---------------------0-----−−−-0--------------------------------0----------−−−−−−−−−|
F|-0---------0--------------------------------0---------0-------------------2−−−−−−−−−|

She's somebody's baby, somebody's baby girl
She's somebody's baby, somebody's baby girl
And she's somebody's baby still

e|----------------------|
B|---1-----1---1-----1--|
G|--0-0---0-0-0-0---0-0-|
D|-----0h2-------0h2----|
A|-3---------3----------|
F|----------------------|


[Outro]

e|---3-----−---3---------3----------------|
B|---------1---------1---------1---1---1--|
G|--0-0---0-0-0-0---0-0-0-0---0-0-0-0-0-0-|
D|-----0h2-------0h2-------0h2------------|
A|-3---------3---------0---------0---2----|
F|----------------------------------------|

End on C, but if you want to make it more sad (if necessary!), mute the high E string.

This is how I play the song. It's not exactly like the original (I can't play cello and guitar at the 
same time!!) but I think it's alright. Good luck an God bless!!

************************************

| x   Dead note
| h   Hammer-on
| p   Pull-off

************************************
Suggest correction
Creating personal tab
Creating personal tab
You can edit any tab online and save it as your Personal.

You can edit, replace or remove any tab part or add personal notes – all changes will be seen only by you.

Personal tabs can be accessed anytime from any device, even offline.
Learn more »
Give kudos to tab author, rate the tab!
1 2 3 4 5
comments
print report bad tab
guest
You may want to rate the tab now too:
select rating
Wanna post a correction for this tab? Suggest correction