Oops, an error
Loading. Please wait.

Terminal tab

version 2
version 2

Whole song

2,113 views 15 this week
1 commentread comment
1 2 3 4 5
x 6
add to favorites
×
Save as Personal and add changes to this tab that will be seen only by you. Learn more ›
×
You can save this tab as Personal to edit and correct it or add notes. All changes will be seen only by you. Learn more »
launch autoscroll
font size
0
reset
how to read this tab
guitar tuner
edit
Autoscroll
slow
fast
+/-
esc
set tempo
stop
Author
Difficulty
Album: "The Wonderlands: Sunlight."
Year: 2015

Key: B (No capo)
Key: E (Capo)

Tempo: 77 (4/4)
Capo: 7th Fret

Tabs and chords relative to capo (with capo): 

INTRO


e|---------------------------------|
B|-----0-------0-------0-------0---|
G|-2-------1-------2-------1-------| (x4)
D|---------------------------------|
A|---------------------------------|
E|---0---0---0---0---0---0---0---0-|


     (E)                             (Em)                            (Esus4)
e|------------------------------------------------------------------------------------------------|
B|--------------0---------------0---------------0---------------0---------------0---------------0-|
G|1---1---1---2---1---1---1---2---0---0---0---2---0---0---0---2---2---2---2---2---2---2---2---2---|(x2)
D|--2---2---2-------2---2---2-------2---2---2-------2---2---2-------2---2---2-------2---2---2-----|
A|------------------------------------------------------------------------------------------------|
E|-0-0-0-0-0-0-0-0-0-0-0-0-0-0-0-0-0-0-0-0-0-0-0-0-0-0-0-0-0-0-0-0-0-0-0-0-0-0-0-0-0-0-0-0-0-0-0-0|

VERSE I
The doctor says I'm dying        He's got no prescription
I die a little every day         that could take my death away

          (E)                         (Em)
e|------------------|        e|-----------------|
B|------------------|        B|-----------------|
G|1---1---1---1-----| (x2)   G|0---0---0---0----|  (x2)
D|--2---2---2---2---|        D|--2---2---2---2--|
A|------------------|        A|-----------------|
E|-0-0-0-0-0-0-0-0--|        E|-0-0-0-0-0-0-0-0-|

The doctor says, it               It's terminal.
don't look so good               

         (Esus4)                       (E)
e|-------------------|        e|-----------------|
B|-------------------|        B|--------------0--|
G|2---2---2---2------| (x2)   G|1---1---1---2----| (X2) 
D|--2---2---2---2----|        D|--2---2---2------|
A|-------------------|        A|-----------------|
E|-0-0-0-0-0-0-0-0---|        E|-0-0-0-0-0-0-0-0-| 

Some folks die in offices         They could live a hundred years
One day at a time                 but their soul's already died

          (E)                          (Em)
e|------------------|        e|-----------------|
B|------------------|        B|-----------------|
G|1---1---1---1-----| (x2)   G|0---0---0---0----|  (x2)
D|--2---2---2---2---|        D|--2---2---2---2--|
A|------------------|        A|-----------------|
E|-0-0-0-0-0-0-0-0--|        E|-0-0-0-0-0-0-0-0-|

Don't let your spirit die        We're terminal
before your body does            

         (Esus4)                       (E)
e|-------------------|        e|-----------------|
B|-------------------|        B|--------------0--|
G|2---2---2---2------| (x2)   G|1---1---1---2----| (X2) 
D|--2---2---2---2----|        D|--2---2---2------|
A|-------------------|        A|-----------------|
E|-0-0-0-0-0-0-0-0---|        E|-0-0-0-0-0-0-0-0-| 

We're terminal                   We're terminal

         (Em)                          (E)
e|------------------|        e|--------------------|
B|----------------0-|        B|-----------------0--|
G|0---0---0-----2---| (x2)   G|--------------2-----|
D|--2---2---2-------|        D|-2-2-2-2-2-2--------|
A|------------------|        A|--------------------|
E|-0-0-0-0-0-0-0-0-0|        E|--0-0-0-0-0-0-0-0-0-| 

                        Yeah!
           (E)
e|--------------------|
B|--------------------|
G|--------------------|
D|-2-2-2-2-2-2-2-2----|
A|--------------------|
E|--0-0-0-0-0-0-0-0---| 

CHORUS

   E
We are, we are the living souls

      C
With terminal hearts, terminal parts

                 Asus2
Flickering like candles, shimmering like candles

       C                     D*
We're fatally flawed, we're fatally flawed


VERSE II
                                The moment I start cursing at the 
                                traffic or the phone

          (E)                           (E)
e|----------------|        e|----------------|
B|--------------0-|        B|----------------|
G|1---1---1---2---| (x2)   G|1---1---1---1---|  (x2)
D|--2---2---2-----|        D|--2---2---2---2-|
A|----------------|        A|----------------|
E|-0-0-0-0-0-0-0-0|        E|-0-0-0-0-0-0-0-0|

I remind myself that we               Don’t yell at the dead,
have all got Cancer in our bones      show a little respect

        (Em)                              (Esus4)
e|----------------|              e|----------------|
B|----------------|              B|----------------|
G|0---0---0---0---| (x2)         G|2---2---2---2---| (x2)
D|--2---2---2---2-|              D|--2---2---2---2-|
A|----------------|              A|----------------|
E|-0-0-0-0-0-0-0-0|              E|-0-0-0-0-0-0-0-0|

It's terminal                    It's terminal           Yeah!

         (E)                           (Em)
e|----------------|        e|----------------|
B|--------------0-|        B|----------------|
G|1---1---1---2---| (x2)   G|0---0---0---0---| (X2) 
D|--2---2---2-----|        D|--2---2---2---2-|
A|----------------|        A|----------------|
E|-0-0-0-0-0-0-0-0|        E|-0-0-0-0-0-0-0-0| 


CHORUS x2

   E
We are, we are the living souls

      C
With terminal hearts, terminal parts

                 Asus2
Flickering like candles, flickering like candles

       C                     D*
We're fatally flawed, we're fatally flawed


BRIDGE

 B*            C     |
(Ah, ah)     (Ah, ah)|
                     | (x2)
 B*            E     |
(Ah, ah)     (Ah, ah)|
----------------------
 B*            C     |
(Ah, ah)     (Ah, ah)|
                     | 
 B*            Asus2 |
(Ah, ah)     (Ah, ah |


   E                 |
                     |(6 Bars) 
(Ah...)   //We are// |





[Spoken]
“Earth to earth, ashes to ashes, dust to dust
For our days here are like grass
We flourish like a flower of the field
The wind blows and it is gone
And its place remembers it no more
Naked we came from our mother’s womb
And naked we will depart
For we bring nothing into the world
And we can't take nothing away"



II CHORUS

   E
We are, we are the living souls

      C
With terminal hearts, terminal parts

                 Asus2
Flickering like candles, flickering like candles

       C                     D*                   E
We're fatally flawed, in the image of God   

   D*   B*    C*  Asus2
e|-0----0-----0-----0----| 
B|-3----0-----0-----0----|
G|-0----4-----5-----2----|
D|-4----4-----5-----2----|
A|-5----2-----3-----0----|
E|-x----x-----x-----x----|


*****************************************************************************************************
=====================================================================================================
*****************************************************************************************************


Tabs and chords with no capo:

INTRO


e|---------------------------------|
B|-----7-------7-------7-------7---|
G|-9-------8-------9-------8-------| (x4)
D|---------------------------------|
A|---------------------------------|
E|---7---7---7---7---7---7---7---7-|


     (B)                             (Bm)                            (Bsus4)
e|------------------------------------------------------------------------------------------------|
B|--------------7---------------7---------------7---------------7---------------7---------------7-|
G|8---8---8---9---8---8---8---9---7---7---7---9---7---7---7---9---9---9---9---9---9---9---9---9---|(x2)
D|--9---9---9-------9---9---9-------9---9---9-------9---9---9-------9---9---9-------9---9---9-----|
A|------------------------------------------------------------------------------------------------|
E|-7-7-7-7-7-7-7-7-7-7-7-7-7--7-7-7-7-7-7-7-7-7-7-7-7-7-7-7-7-7-7-7-7-7-7-7-7-7-7-7-7-7-7-7-7-7-7-|

VERSE I
The doctor says I'm dying        He's got no prescription
I die a little every day         that could take my death away

          (B)                         (Bm)
e|------------------|        e|-----------------|
B|------------------|        B|-----------------|
G|8---8---8---8-----| (x2)   G|7---7---7---7----|  (x2)
D|--9---9---9---9---|        D|--9---9---9---9--|
A|------------------|        A|-----------------|
E|-7-7-7-7-7-7-7-7--|        E|-7-7-7-7-7-7-7-7-|

The doctor says, it               It's terminal.
don't look so good               

         (Bsus4)                       (B)
e|-------------------|        e|-----------------|
B|-------------------|        B|--------------7--|
G|9---9---9---9------| (x2)   G|8---8---8---9----| (X2) 
D|--9---9---9---9----|        D|--9---9---9------|
A|-------------------|        A|-----------------|
E|-7-7-7-7-7-7-7-7---|        E|-7-7-7-7-7-7-7-7-| 

Some folks die in offices         They could live a hundred years
One day at a time                 but their soul's already died

          (B)                          (Bm)
e|------------------|        e|-----------------|
B|------------------|        B|-----------------|
G|8---8---8---8-----| (x2)   G|7---7---7---7----|  (x2)
D|--9---9---9---9---|        D|--9---9---9---9--|
A|------------------|        A|-----------------|
E|-7-7-7-7-7-7-7-7--|        E|-7-7-7-7-7-7-7-7-|

Don't let your spirit die        We're terminal
before your body does            

         (Bsus4)                       (B)
e|-------------------|        e|-----------------|
B|-------------------|        B|--------------7--|
G|9---9---9---9------| (x2)   G|8---8---8---9----| (X2) 
D|--9---9---9---9----|        D|--9---9---9------|
A|-------------------|        A|-----------------|
E|-7-7-7-7-7-7-7-7---|        E|-7-7-7-7-7-7-7-7-| 

We're terminal                   We're terminal

         (Bm)                          (B)
e|------------------|        e|--------------------|
B|----------------7-|        B|-----------------7--|
G|7---7---7-----9---| (x2)   G|--------------9-----|
D|--9---9---9-------|        D|-9-9-9-9-9-9--------|
A|------------------|        A|--------------------|
E|-7-7-7-7-7-7-7-7-7|        E|--7-7-7-7-7-7-7-7-7-| 

                        Yeah!
           (B)
e|--------------------|
B|--------------------|
G|--------------------|
D|-9-9-9-9-9-9-9-9----|
A|--------------------|
E|--7-7-7-7-7-7-7-7---| 


CHORUS

   Badd4
We are, we are the living souls

      G6
With terminal hearts, terminal parts

                 E5
Flickering like candles, shimmering like candles

       G6*                   Aadd2    
We're fatally flawed, we're fatally flawed


VERSE II
                                The moment I start cursing at the 
                                traffic or the phone

          (B)                           (B)
e|--------------------|        e|-------------------|
B|-----------------7--|        B|-------------------|
G|---8---8---8---9----| (x2)   G|--8---8---8---8----|  (x2)
D|-----9---9---9------|        D|----9---9---9---9--|
A|--------------------|        A|-------------------|
E|--------------------|        E|-------------------|

I remind myself that we               Don’t yell at the dead,
have all got Cancer in our bones      show a little respect

         (Bm)                                (Bsus4)
e|--------------------|              e|-------------------|
B|--------------------|              B|-------------------|
G|---7---7---7---7----| (x2)         G|-9---9---9---9-----| (x2)
D|-----9---9---9---9--|              D|---9---9---9---9---|
A|--------------------|              A|-------------------|
E|--------------------|              E|-------------------|

It's terminal                    It's terminal           Yeah!

         (B)                           (Bm)
e|--------------------|        e|-------------------|
B|----------------7---|        B|-------------------|
G|--8---8---8---9-----| (x2)   G|---7---7---7---7---| (X2) 
D|----9---9---9-------|        D|-----9---9---9---9-|
A|--------------------|        A|-------------------|
E|--------------------|        E|-------------------| 


CHORUS x2

   Badd4
We are, we are the living souls

      G6
With terminal hearts, terminal parts

                 E5
Flickering like candles, flickering like candles

       G6*                   Aadd2    
We're fatally flawed, we're fatally flawed

BRIDGE

 F#7sus4        G6   |
(Ah, ah)     (Ah, ah)|
                     | (x2)
 F#7sus4        B    |
(Ah, ah)     (Ah, ah)|
----------------------
 F#7sus4        G6   |
(Ah, ah)     (Ah, ah)|
                     | 
 F#7sus4        E5   |
(Ah, ah)     (Ah, ah)|


   B                 |
                     |(6 Bars) 
(Ah...)   //We are// |

[Spoken]
“Earth to earth, ashes to ashes, dust to dust
For our days here are like grass
We flourish like a flower of the field
The wind blows and it is gone
And its place remembers it no more
Naked we came from our mother’s womb
And naked we will depart
For we bring nothing into the world
And we can't take nothing away"

II CHORUS

   Badd4
We are, we are the living souls

      G6
With terminal hearts, terminal parts

                 E5
Flickering like candles, flickering like candles

       G6*                   Aadd2                   Badd4
We're fatally flawed, in the image of God   



  Badd4   G6    E5    G6*  Add2  F#7sus4
e|--0-----0-----0-----0-----0-------0-------|
B|--0-----0-----0-----0-----0-------0-------|
G|--8-----12----9-----4-----6-------11------|
D|--9-----12----9-----5-----7-------11------|
A|--9-----10----7-----5-----7-------9-------|
E|--7-----x-----0-----3-----5-------x-------|

The chords shown here are the ones that I think are the best to play for a version without capo.

            
            
Suggest correction
Creating personal tab
Creating personal tab
You can edit any tab online and save it as your Personal.

You can edit, replace or remove any tab part or add personal notes – all changes will be seen only by you.

Personal tabs can be accessed anytime from any device, even offline.
Learn more »
comments
print report bad tab
1 comment total.
0 reply
Cpt_Lazlo 54 Aug 23, 2015 05:49 PM

I feel like that A should be an Am. Otherwise awesome!

guest
You may want to rate the tab now too:
select rating
Wanna post a correction for this tab? Suggest correction