Oops, an error
Loading. Please wait.

The Cure For Pain tab

version 1
version 1

Whole song

4 views 1 this week
no commentswrite comment
1 2 3 4 5
3 more votes to show rating
add to favorites
×
Save as Personal and add changes to this tab that will be seen only by you. Learn more ›
×
You can save this tab as Personal to edit and correct it or add notes. All changes will be seen only by you. Learn more »
launch autoscroll
font size
0
reset
how to read this tab
guitar tuner
edit
Autoscroll
slow
fast
+/-
esc
set tempo
stop
Standard Tuning

Strum pattern (intro): Pick D UDU

[Intro]
    D D  U D U  D D  U D U
e|--x-x--x-x-x--x-x--x-x-x--------------------------|
B|--x-x--x-x-x--x-x--x-x-x--------------------------|
G|--x-x--x-x-x--x-x--x-x-x--------------------------|
D|--x-x--x-x-x--x-x--x-x-x--------------------------|
A|--x-x--x-x-x--x-x--x-x-x--------------------------|
E|--x-x--x-x-x--x-x--x-x-x--------------------------|

    E          B            F#           G#m
e|--------------------------------------------------|
B|----4-4-4-4---------------------------------------|
G|----1-1-1-1------4-4-4-4------3-3-3-3----4-4-4-4--|
D|--2-2-2-2-2------1-1-1-1------4-4-4-4----6-6-6-6--|
A|-------------2-2-2-2-2-2------4-4-4-4----6-6-6-6--|
E|--------------------------2-2-2-2-2-2--4-4-4-4-4--|

    E          B            F#           G#m
e|--------------------------------------------------|
B|----4-4-4-4---------------------------------------|
G|----1-1-1-1------4-4-4-4------3-3-3-3----4-4------|
D|--2-2-2-2-2------1-1-1-1------4-4-4-4----6-6------|
A|-------------2-2-2-2-2-2------4-4-4-4----6-4h6p4--|
E|--------------------------2-2-2-2-2-2--4-4-4------|

[Verse 1]
    E          B            F#           G#m
e|--------------------------------------------------|
B|----4-4-4-4---------------------------------------|
G|----1-1-1-1------4-4-4-4------3-3-3-3----4-4-4-4--|
D|--2-2-2-2-2------1-1-1-1------4-4-4-4----6-6-6-6--|
A|-------------2-2-2-2-2-2------4-4-4-4----6-6-6-6--|
E|--------------------------2-2-2-2-2-2--4-4-4-4-4--|
I'm not sure why it always goes downhill

    E          B            F#           G#m
e|--------------------------------------------------|
B|----4-4-4-4---------------------------------------|
G|----1-1-1-1------4-4-4-4------3-3-3-3----4-4------|
D|--2-2-2-2-2------1-1-1-1------4-4-4-4----6-6------|
A|-------------2-2-2-2-2-2------4-4-4-4----6-4h6p4--|
E|--------------------------2-2-2-2-2-2--4-4-4------|
Why broken cisterns never could stay filled

    E          B            F#           G#m
e|--------------------------------------------------|
B|----4-4-4-4---------------------------------------|
G|----1-1-1-1------4-4-4-4------3-3-3-3----4-4-4-4--|
D|--2-2-2-2-2------1-1-1-1------4-4-4-4----6-6-6-6--|
A|-------------2-2-2-2-2-2------4-4-4-4----6-6-6-6--|
E|--------------------------2-2-2-2-2-2--4-4-4-4-4--|
I've spent ten years singing gravity away

    E          B            F#           G#m
e|--------------------------------------------------|
B|----4-4-4-4---------------------------------------|
G|----1-1-1-1------4-4-4-4------3-3-3-3----4-4------|
D|--2-2-2-2-2------1-1-1-1------4-4-4-4----6-6------|
A|-------------2-2-2-2-2-2------4-4-4-4----6-4h6p4--|
E|--------------------------2-2-2-2-2-2--4-4-4------|
But the water keeps on falling from the sky

[Verse 2]
    E          B            F#           G#m
e|--------------------------------------------------|
B|----4-4-4-4---------------------------------------|
G|----1-1-1-1------4-4-4-4------3-3-3-3----4-4-4-4--|
D|--2-2-2-2-2------1-1-1-1------4-4-4-4----6-6-6-6--|
A|-------------2-2-2-2-2-2------4-4-4-4----6-6-6-6--|
E|--------------------------2-2-2-2-2-2--4-4-4-4-4--|
And here tonight while the stars are blacking out

    E          B            F#           G#m
e|--------------------------------------------------|
B|----4-4-4-4---------------------------------------|
G|----1-1-1-1------4-4-4-4------3-3-3-3----4-4------|
D|--2-2-2-2-2------1-1-1-1------4-4-4-4----6-6------|
A|-------------2-2-2-2-2-2------4-4-4-4----6-4h6p4--|
E|--------------------------2-2-2-2-2-2--4-4-4------|
With every hope and dream I've ever had in doubt

    E          B            F#           G#m
e|--------------------------------------------------|
B|----4-4-4-4---------------------------------------|
G|----1-1-1-1------4-4-4-4------3-3-3-3----4-4-4-4--|
D|--2-2-2-2-2------1-1-1-1------4-4-4-4----6-6-6-6--|
A|-------------2-2-2-2-2-2------4-4-4-4----6-6-6-6--|
E|--------------------------2-2-2-2-2-2--4-4-4-4-4--|
I've spent ten years trying to sing these doubts away 

    E          B            F#          
e|--------------------------------------------------|
B|----4-4-4-4---------------------------------------|
G|----1-1-1-1------4-4-4-4------3-4-4p3--3-3-3-3-3--|
D|--2-2-2-2-2------1-1-1-1------4-4-4----4-4-4-4-4--|
A|-------------2-2-2-2-2-2------4-4-4----4-4-4-4-4--|
E|--------------------------2-2-2-2-2-2--2-2-2-2-2--|
But the water keeps on falling from my eyes

[Chorus]
    E          B            F#           G#m7
e|-----------------------------------------2-2-2-2--|
B|----4-4-4-4------------------------------4-4-4-4--|
G|----1-1-1-1------4-4-4-4------3-3-3-3----4-4-4-4--|
D|--2-2-2-2-2------1-1-1-1------4-4-4-4----x-x-x-x--|
A|-------------2-2-2-2-2-2------4-4-4-4----x-x-x-x--|
E|--------------------------2-2-2-2-2-2--4-4-4-4-4--|
And heaven knows... heaven knows

    E          B            F#          
e|--------------------------------------------------|
B|----4-4-4-4---------------------------------------|
G|----1-1-1-1------4-4-4-4------3-4-4p3--3-3-3-3-3--|
D|--2-2-2-2-2------1-1-1-1------4-4-4----4-4-4-4-4--|
A|-------------2-2-2-2-2-2------4-4-4----4-4-4-4-4--|
E|--------------------------2-2-2-2-2-2--2-2-2-2-2--|
I tried to find a cure for the pain

    E          B            F#           G#m7
e|-----------------------------------------2-2-2-2--|
B|----4-4-4-4------------------------------4-4-4-4--|
G|----1-1-1-1------4-4-4-4------3-3-3-3----4-4-4-4--|
D|--2-2-2-2-2------1-1-1-1------4-4-4-4----x-x-x-x--|
A|-------------2-2-2-2-2-2------4-4-4-4----x-x-x-x--|
E|--------------------------2-2-2-2-2-2--4-4-4-4-4--|
Oh my Lord, to suffer like you do...

    E          B    F# 
e|--------------------------------------------------|
B|----4-4-4-4---------------------------------------|
G|----1-1-1-1--4-4--3-3-----------------------------|
D|--2-2-2-2-2--1-1--4-4-----------------------------|
A|-------------2-2--4-4-----------------------------|
E|------------------2-2-----------------------------|
It would be a lie to run away

    E          B    F#   E          B    F#    
e|--------------------------------------------------|
B|----4-4-4-4--------------4-4-4-4------------------|
G|----1-1-1-1--4-4--3-3----1-1-1-1--4-4--3-3--------|
D|--2-2-2-2-2--1-1--4-4--2-2-2-2-2--1-1--4-4--------|
A|-------------2-2--4-4-------------2-2--4-4--------|
E|------------------2-2------------------2-2--------|

[Verse 3]
    E          B            F#           G#m
e|--------------------------------------------------|
B|----4-4-4-4---------------------------------------|
G|----1-1-1-1------4-4-4-4------3-3-3-3----4-4-4-4--|
D|--2-2-2-2-2------1-1-1-1------4-4-4-4----6-6-6-6--|
A|-------------2-2-2-2-2-2------4-4-4-4----6-6-6-6--|
E|--------------------------2-2-2-2-2-2--4-4-4-4-4--|
So blood is fire pulsing through our veins

    E          B            F#           G#m
e|--------------------------------------------------|
B|----4-4-4-4---------------------------------------|
G|----1-1-1-1------4-4-4-4------3-3-3-3----4-4------|
D|--2-2-2-2-2------1-1-1-1------4-4-4-4----6-6------|
A|-------------2-2-2-2-2-2------4-4-4-4----6-4h6p4--|
E|--------------------------2-2-2-2-2-2--4-4-4------|
We're either riders, or fools behind the reins

    E          B            F#           G#m
e|--------------------------------------------------|
B|----4-4-4-4---------------------------------------|
G|----1-1-1-1------4-4-4-4------3-3-3-3----4-4-4-4--|
D|--2-2-2-2-2------1-1-1-1------4-4-4-4----6-6-6-6--|
A|-------------2-2-2-2-2-2------4-4-4-4----6-6-6-6--|
E|--------------------------2-2-2-2-2-2--4-4-4-4-4--|
I've spent ten years trying to sing it all away

    E          B            F#          
e|--------------------------------------------------|
B|----4-4-4-4---------------------------------------|
G|----1-1-1-1------4-4-4-4------3-4-4p3--3-3-3-3-3--|
D|--2-2-2-2-2------1-1-1-1------4-4-4----4-4-4-4-4--|
A|-------------2-2-2-2-2-2------4-4-4----4-4-4-4-4--|
E|--------------------------2-2-2-2-2-2--2-2-2-2-2--|
But the water keeps on falling from my tries

[Chorus 2]
    E          B            F#           G#m
e|--------------------------------------------------|
B|----4-4-4-4---------------------------------------|
G|----1-1-1-1------4-4-4-4------3-3-3-3----4-4-4-4--|
D|--2-2-2-2-2------1-1-1-1------4-4-4-4----6-6-6-6--|
A|-------------2-2-2-2-2-2------4-4-4-4----6-6-6-6--|
E|--------------------------2-2-2-2-2-2--4-4-4-4-4--|
And heaven knows... heaven knows

    E          B            F#          
e|--------------------------------------------------|
B|----4-4-4-4---------------------------------------|
G|----1-1-1-1------4-4-4-4------3-4-4p3--3-3-3-3-3--|
D|--2-2-2-2-2------1-1-1-1------4-4-4----4-4-4-4-4--|
A|-------------2-2-2-2-2-2------4-4-4----4-4-4-4-4--|
E|--------------------------2-2-2-2-2-2--2-2-2-2-2--|
I tried to find a cure for the pain

    E          B            F#           G#m
e|--------------------------------------------------|
B|----4-4-4-4---------------------------------------|
G|----1-1-1-1------4-4-4-4------3-3-3-3----4-4-4-4--|
D|--2-2-2-2-2------1-1-1-1------4-4-4-4----6-6-6-6--|
A|-------------2-2-2-2-2-2------4-4-4-4----6-6-6-6--|
E|--------------------------2-2-2-2-2-2--4-4-4-4-4--|
Oh my Lord, to suffer like you do...

    E          B    F#   E          B    F#    
e|--------------------------------------------------|
B|----4-4-4-4--------------4-4-4-4------------------|
G|----1-1-1-1--4-4--3-3----1-1-1-1--4-4--3-3--------|
D|--2-2-2-2-2--1-1--4-4--2-2-2-2-2--1-1--4-4--------|
A|-------------2-2--4-4-------------2-2--4-4--------|
E|------------------2-2------------------2-2--------|
It would be a lie to run away, a lie to run

    E          B    F#   E          B    F#    
e|--------------------------------------------------|
B|----4-4-4-4--------------4-4-4-4------------------|
G|----1-1-1-1--4-4--3-3----1-1-1-1--4-4--3-3--------|
D|--2-2-2-2-2--1-1--4-4--2-2-2-2-2--1-1--4-4--------|
A|-------------2-2--4-4-------------2-2--4-4--------|
E|------------------2-2------------------2-2--------|
It would be a lie, it would be a lie to run away

    G#m7
e|--------------------------------------------------|
B|----4-4-4-4----4-4-4-4----------------------------|
G|----4-4-4-4----4-4-4-4----------------------------|
D|----x-x-x-x----x-x-x-x----------------------------|
A|----x-x-x-x----x-x-x-x----------------------------|
E|--4-4-4-4-4--4-4-4-4-4----------------------------| 
Mmm

    E          B            F#           G#m
e|--------------------------------------------------|
B|----4-4-4-4---------------------------------------|
G|----1-1-1-1------4-4-4-4------3-3-3-3----4-4-4-4--|
D|--2-2-2-2-2------1-1-1-1------4-4-4-4----6-6-6-6--|
A|-------------2-2-2-2-2-2------4-4-4-4----6-6-6-6--|
E|--------------------------2-2-2-2-2-2--4-4-4-4-4--|
Mmm, mmm

[Bridge]
    E          B            F#           G#m
e|--------------------------------------------------|
B|----4-4-4-4---------------------------------------|
G|----1-1-1-1------4-4-4-4------3-3-3-3----4-4-4-4--|
D|--2-2-2-2-2------1-1-1-1------4-4-4-4----6-6-6-6--|
A|-------------2-2-2-2-2-2------4-4-4-4----6-6-6-6--|
E|--------------------------2-2-2-2-2-2--4-4-4-4-4--|
It keeps on falling, it keeps on falling

    E          B            F#           G#m
e|--------------------------------------------------|
B|----4-4-4-4---------------------------------------|
G|----1-1-1-1------4-4-4-4------3-3-3-3----4-4-4-4--|
D|--2-2-2-2-2------1-1-1-1------4-4-4-4----6-6-6-6--|
A|-------------2-2-2-2-2-2------4-4-4-4----6-6-6-6--|
E|--------------------------2-2-2-2-2-2--4-4-4-4-4--|
It keeps on falling, it keeps on falling

    E          B            F#          
e|--------------------------------------------------|
B|----4-4-4-4---------------------------------------|
G|----1-1-1-1------4-4-4-4------3-4-4p3--3-3-3-3-3--|
D|--2-2-2-2-2------1-1-1-1------4-4-4----4-4-4-4-4--|
A|-------------2-2-2-2-2-2------4-4-4----4-4-4-4-4--|
E|--------------------------2-2-2-2-2-2--2-2-2-2-2--|
The water keeps on falling from my eyes

    E          B            F#           G#m
e|--------------------------------------------------|
B|----4-4-4-4---------------------------------------|
G|----1-1-1-1------4-4-4-4------3-3-3-3----4-4-4-4--|
D|--2-2-2-2-2------1-1-1-1------4-4-4-4----6-6-6-6--|
A|-------------2-2-2-2-2-2------4-4-4-4----6-6-6-6--|
E|--------------------------2-2-2-2-2-2--4-4-4-4-4--|
And heaven knows... heaven knows

    E          B            F#          
e|--------------------------------------------------|
B|----4-4-4-4---------------------------------------|
G|----1-1-1-1------4-4-4-4------3-4-4p3--3-3-3-3-3--|
D|--2-2-2-2-2------1-1-1-1------4-4-4----4-4-4-4-4--|
A|-------------2-2-2-2-2-2------4-4-4----4-4-4-4-4--|
E|--------------------------2-2-2-2-2-2--2-2-2-2-2--|
I tried to find a cure for the pain

    E          B            F#           G#m
e|--------------------------------------------------|
B|----4-4-4-4---------------------------------------|
G|----1-1-1-1------4-4-4-4------3-3-3-3----4-4-4-4--|
D|--2-2-2-2-2------1-1-1-1------4-4-4-4----6-6-6-6--|
A|-------------2-2-2-2-2-2------4-4-4-4----6-6-6-6--|
E|--------------------------2-2-2-2-2-2--4-4-4-4-4--|
Oh my Lord, to suffer like you do...

    E          B    F#   E          B    F#    
e|---------------------------------------------------|
B|----4-4-4-4--------------4-4-4-4-------------------|
G|----1-1-1-1--4-4--3-3----1-1-1-1--4-4--3-3---------|
D|--2-2-2-2-2--1-1--4-4--2-2-2-2-2--1-1--4-4---------|
A|-------------2-2--4-4-------------2-2--4-4---------|
E|------------------2-2------------------2-2---------|
It would be a lie to run away

    E          B    F#   E          B    F#    
e|---------------------------------------------------|
B|----4-4-4-4--------------4-4-4-4-------------------|
G|----1-1-1-1--4-4--3-3----1-1-1-1--4-4--3-3---------|
D|--2-2-2-2-2--1-1--4-4--2-2-2-2-2--1-1--4-4---------|
A|-------------2-2--4-4-------------2-2--4-4---------|
E|------------------2-2------------------2-2---------|
It would be a lie to run away

    E          B    F#   E          B    F#   E* 
e|---------------------------------------------------|
B|----4-4-4-4--------------4-4-4-4------------0------|
G|----1-1-1-1--4-4--3-3----1-1-1-1--4-4--3-3--1------|
D|--2-2-2-2-2--1-1--4-4--2-2-2-2-2--1-1--4-4--2------|
A|-------------2-2--4-4-------------2-2--4-4--2------|
E|------------------2-2------------------2-2--0------|
It would be a lie to run away


***********************************

| h   Hammer-on
| p   Pull-off
| x   Dead note

***********************************
Suggest correction
Creating personal tab
Creating personal tab
You can edit any tab online and save it as your Personal.

You can edit, replace or remove any tab part or add personal notes – all changes will be seen only by you.

Personal tabs can be accessed anytime from any device, even offline.
Learn more »
Give kudos to tab author, rate the tab!
1 2 3 4 5
comments
print report bad tab
guest
You may want to rate the tab now too:
select rating
Wanna post a correction for this tab? Suggest correction