Oops, an error
Loading. Please wait.

The Moon Is A Magnet tab

version 1
version 1

Whole song

4,821 views 1 this week
no commentswrite comment
1 2 3 4 5
x 5
add to favorites
×
Save as Personal and add changes to this tab that will be seen only by you. Learn more ›
×
You can save this tab as Personal to edit and correct it or add notes. All changes will be seen only by you. Learn more »
launch autoscroll
font size
0
reset
how to read this tab
guitar tuner
edit
Autoscroll
slow
fast
+/-
esc
set tempo
stop
Jon Foreman - The Moon Is a Magnet
standard tuning

Hey thanks for looking.. i love this song so i decided to tab it out.
Some errors have been found and edited.
thanks for looking

questions or corrections
contact irhymeswithpie@yahoo.com


intro

e]------------------------|
B]------------------------|
G]--------7---------7-----|
D]------4---------4-------|   4x
A]----5-------4-----------|
E]----------5----5--------|

verse

e]----------------------------------------------------------------|
B]----------------------------5-----------4----------------3------|
G]--------7---------7-------0---------------------4------3--------|
D]------4---------4-------2--------4----4--------------3----------|   2x
A]----5-------4------------------2----2---------2----1------------|
E]----------5----5----------------------------3-------------------|


chorus
      G        A7sus4      D       D/F#

e]-----------------------------------------------|
B]--------3----------3---------3---------3-------|
G]----------0------0---0-----2---2---------2-----|
D]---------------2---------0-----------0---------|
A]------2------0---------------------0-----------|
E]----3----------------------------2-------------|


e]-----------------------------------------------|
B]--------3----------3---------3--------4--------|
G]----------0------0---0-----2---2---------------|
D]---------------2---------0----------4---4------|
A]------2------0--------------------2------------|
E]----3------------------------------------------|


e]---------------------------------------------------------------------------------|
B]-------5-------------5---------7-------------7----------8--------------12--------|
G]---------------------------------------------------------------------------------|
D]-----5---5---5-----6---6-----7---7---7-----8---8------9---9---9------12---12-----|
A]---3-------3-----4---------5-------5-----6----------7-------7-----10-------------|
E]---------------------------------------------------------------------------------|

------------------------------------------------------|
----14---------------14-------12---------------14-----|
------------------------------------------------------|
--14---14----14----14-------12---12----12-----14---14-|
/12---------12---12--------10---------10-----12-------|
------------------------------------------------------|

then back to the verse again


Bridge

e]--------------|
B]--------------|
G]--------------|
D]---5---7------|
A]---2---4------|   4x
E]---3---5------|


                        End

e]----------------------------|
B]----------3--------/--------|
G]--------3---3------/---7----|
D]------3-------3----/---4----|
A]----1-----------1--/---5----|
E]----------------------------|

/  slide up

intro
verse
chorus
verse
chorus
bridge
verse
end!!!
Suggest correction
Creating personal tab
Creating personal tab
You can edit any tab online and save it as your Personal.

You can edit, replace or remove any tab part or add personal notes – all changes will be seen only by you.

Personal tabs can be accessed anytime from any device, even offline.
Learn more »
comments
print report bad tab
guest
You may want to rate the tab now too:
select rating
Wanna post a correction for this tab? Suggest correction