Oops, an error
Loading. Please wait.

Vessel tab

106 views 1 this week
no commentswrite comment
1 2 3 4 5
3 more votes to show rating
add to favorites
×
Save as Personal and add changes to this tab that will be seen only by you. Learn more ›
×
You can save this tab as Personal to edit and correct it or add notes. All changes will be seen only by you. Learn more »
launch autoscroll
font size
0
reset
how to read this tab
guitar tuner
edit
Autoscroll
slow
fast
+/-
esc
set tempo
stop
Author
Jon Hopkins - Vessel

The piano part transcribed for guitar

Piano starts at 0:55

  Ab                                  Abm
e|-----------------|-----------------|-----------------|--------------------|   \
B|-----------------|-----------------|-----------------|--------------------|    \
G|-------5-----5---|-------5-----5---|-------4-----4---|-------4-----4------|     \
D|-----6-----6---6-|-----6-----6---6-|-----6-----6---6-|-----6-----6---6----|      |
A|---6-----6-------|---6-----6-------|---6-----6-------|---6-----6----------|      |
E|-4---------------|-4---------------|-4---------------|-4------------------| x2   |
                                                                                   \
                                                                                    } Play three times
  Eb/G                                Ebm/Gb                                       /
e|-----------------|-----------------|-----------------|--------------------|      |
B|-----------------|-----------------|-----------------|--------------------|      |
G|-------3-----3---|-------3-----3---|-------3-----3---|-------3-----3------|      |
D|-----5-----5---5-|-----5-----5---5-|-----4-----4---4-|-----4-----4---4--- |      /
A|---6-----6-------|---6-----6-------|---6-----6-------|---6-----6--------- |     /
E|-3---------------|-3---------------|-2---------------|-2----------------- | x2 /

(2:20)
  C#m/E                               Gbsus2
e|-----------------|-----------------|-----------------|-----------------|
B|-----------------|-----------------|-----------------|-----------------|
G|-------1-----1---|-------1-----1---|-------1-----1---|-------1-----1---|
D|-----2-----2---2-|-----2-----2---2-|-----4-----4---4-|-----4-----4---4-|
A|---4-----4-------|---4-----4-------|---4-----4-------|---4-----4-------|
E|-0---------------|-0---------------|-2---------------|-2---------------|

  Eb/G                                Abm
e|-----------------|-----------------|-----------------|-----------------|
B|-----------------|-----------------|-----------------|-----------------|
G|-------3-----3---|-------3-----3---|-------4-----4---|-------4-----4---|
D|-----5-----5---5-|-----5-----5---5-|-----6-----6---6-|-----6-----6---6-|
A|---6-----6-------|---6-----6-------|---6-----6-------|---6-----6-------|
E|-3---------------|-3---------------|-4---------------|-4---------------|

  C#m/E                               Gbsus2
e|-----------------|-----------------|-----------------|-----------------|
B|-----------------|-----------------|-----------------|-----------------|
G|-------1-----1---|-------1-----1---|-------1-----1---|-------1-----1---|
D|-----2-----2---2-|-----2-----2---2-|-----4-----4---4-|-----4-----4---4-|
A|---4-----4-------|---4-----4-------|---4-----4-------|---4-----4-------|
E|-0---------------|-0---------------|-2---------------|-2---------------|

  Eb/G                                Abm                Absus2
e|-----------------|-----------------|-----------------|-----------------|
B|-----------------|-----------------|-----------------|-----------------|
G|-------3-----3---|-------3-----3---|-------4-----4---|-------3-----3---|
D|-----5-----5---5-|-----5-----5---5-|-----6-----6---6-|-----6-----6---6-|
A|---6-----6-------|---6-----6-------|---6-----6-------|---6-----6-------|
E|-3---------------|-3---------------|-4---------------|-4---------------|


(2:48)
  Ab                                  Abm
e|-----------------|-----------------|-----------------|-----------------|
B|-----------------|-----------------|-----------------|-----------------|
G|-------5-----5---|-------5-----5---|-------4-----4---|-------4-----4---|
D|-----6-----6---6-|-----6-----6---6-|-----6-----6---6-|-----6-----6---6-|
A|---6-----6-------|---6-----6-------|---6-----6-------|---6-----6-------|
E|-4---------------|-4---------------|-4---------------|-4---------------| x2

  Eb/G                                Ebm/Gb
e|-----------------|-----------------|-----------------|-----------------|
B|-----------------|-----------------|-----------------|-----------------|
G|-------3-----3---|-------3-----3---|-------3-----3---|-------3-----3---|
D|-----5-----5---5-|-----5-----5---5-|-----4-----4---4-|-----4-----4---4-|
A|---6-----6-------|---6-----6-------|---6-----6-------|---6-----6-------|
E|-3---------------|-3---------------|-2---------------|-2---------------| x2


  C#m/E                               Gbsus2
e|-----------------|-----------------|-----------------|-----------------|
B|-----------------|-----------------|-----------------|-----------------|
G|-------1-----1---|-------1-----1---|-------1-----1---|-------1-----1---|
D|-----2-----2---2-|-----2-----2---2-|-----4-----4---4-|-----4-----4---4-|
A|---4-----4-------|---4-----4-------|---4-----4-------|---4-----4-------|
E|-0---------------|-0---------------|-2---------------|-2---------------|

  Eb/G                                Abm
e|-----------------|-----------------|-----------------|-----------------|
B|-----------------|-----------------|-----------------|-----------------|
G|-------3-----3---|-------3-----3---|-------4-----4---|-------4-----4---|
D|-----5-----5---5-|-----5-----5---5-|-----6-----6---6-|-----6-----6---6-|
A|---6-----6-------|---6-----6-------|---6-----6-------|---6-----6-------|
E|-3---------------|-3---------------|-4---------------|-4---------------|

  C#m/E                               Gbsus2
e|-----------------|-----------------|-----------------|-----------------|
B|-----------------|-----------------|-----------------|-----------------|
G|-------1-----1---|-------1-----1---|-------1-----1---|-------1-----1---|
D|-----2-----2---2-|-----2-----2---2-|-----4-----4---4-|-----4-----4---4-|
A|---4-----4-------|---4-----4-------|---4-----4-------|---4-----4-------|
E|-0---------------|-0---------------|-2---------------|-2---------------|

  Eb/G                                Abm
e|-----------------|-----------------|-----------------|-----------------|
B|-----------------|-----------------|-----------------|-----------------|
G|-------3-----3---|-------3-----3---|-------4-----4---|-------4-----4---|
D|-----5-----5---5-|-----5-----5---5-|-----6-----6---6-|-----6-----6---6-|
A|---6-----6-------|---6-----6-------|---6-----6-------|---6-----6-------|
E|-3---------------|-3---------------|-4---------------|-4---------------|

  Ab
e|-----------------|-----------------|
B|-----------------|-----------------|
G|-------5-----5---|-------5-----5---|
D|-----6-----6---6-|-----6-----6---6-|
A|---6-----6-------|---6-----6-------|
E|-4---------------|-4---------------|

(3:58)
Eb/G                                 - Ebm/Gb x5

---END---


CHORD SHEET
(0:55)
Ab       - Abm
Ab       - Abm
Eb/G     - Ebm/Gb
Eb/G     - Ebm/Gb
Ab       - Abm
Ab       - Abm
Eb/G     - Ebm/Gb
Eb/G     - Ebm/Gb
Ab       - Abm
Ab       - Abm
Eb/G     - Ebm/Gb
Eb/G     - Ebm/Gb

(2:20)
C#m/E    - Gbsus2
Eb/G     - Abm
C#m/E    - Gbsus2
Eb/G     - Abm    Absus2

(2:48)
Ab       - Abm
Ab       - Abm
Eb/G     - Ebm/Gb
Eb/G     - Ebm/Gb
C#m/E    - Gbsus2
Eb/G     - Abm
C#m/E    - Gbsus2
Eb/G     - Abm
Ab

(3:58)
Eb/G     - Ebm/Gb
Eb/G     - Ebm/Gb
Eb/G     - Ebm/Gb
Eb/G     - Ebm/Gb
Eb/G     - Ebm/Gb
---END---

The C#m/E should theoretically be a Dbm/Fb, but I thought this was more convenient.

            
            
Suggest correction
Creating personal tab
Creating personal tab
You can edit any tab online and save it as your Personal.

You can edit, replace or remove any tab part or add personal notes – all changes will be seen only by you.

Personal tabs can be accessed anytime from any device, even offline.
Learn more »
Give kudos to tab author, rate the tab!
1 2 3 4 5
comments
print report bad tab
guest
You may want to rate the tab now too:
select rating
Wanna post a correction for this tab? Suggest correction