Oops, an error
Loading. Please wait.

I Kill People tab

5,891 views 1 this week
1 commentread comment
1 2 3 4 5
x 5
add to favorites
×
Save as Personal and add changes to this tab that will be seen only by you. Learn more ›
×
You can save this tab as Personal to edit and correct it or add notes. All changes will be seen only by you. Learn more »
launch autoscroll
font size
0
reset
how to read this tab
guitar tuner
edit
Autoscroll
slow
fast
+/-
esc
set tempo
stop
Standard Tuning

1=E 4=D
2=B 5=A
3=G 6=E

00:00 - 00:17

1:--------|\
2:--------| \
3:--------|  \ Let it ring
4:--------|  / Sound to me like a french horn.
5:--------| /  ''Did you miss me?''
6:-5------|/ 

1:---------------------------|\    
2:------------------17-------| \
3:---------------------------|  \ During Intro, before the gunshot
4:--14--15--17--19-----------|  / Let it ring
5:---------------------------| /  Sound to me like Choirs Aahs
6:---------------------------|/

00:25 - 00:41

1:--------------------------------------------------|\   X2
2:-17-18-17-----------------------------------------| \
3:---------------17-16-17-19-17-16------------------|  \ 
4:----------------------------------19-------14---17|  / 
5:--------------------------------------------------| /
6:--------------------------------------------------|/

That's the verse, before the chorus
I don't know which instrument do it, sry
Maybe ''Rock Organ''...


00:42 - 00:57

1:------------------|\   X2
2:------------------| \
3:------------------|  \ That's the chorus
4:------------------|  / ''Guns don't kill people''...
5:------------------| /  Sound to me like a french horn too...
6:-5-----6-5-4-5----|/ 


That's all the riff in the song, mostly vocal song... Hope that help...
I've found those on guitar, that why i don't know which instrument they are...

Comments and rate! Thanks

MangeuDePoutine@hotmail.com

            
            
Suggest correction
Creating personal tab
Creating personal tab
You can edit any tab online and save it as your Personal.

You can edit, replace or remove any tab part or add personal notes – all changes will be seen only by you.

Personal tabs can be accessed anytime from any device, even offline.
Learn more »
comments
print report bad tab
1 comment total.
0 reply
=Thunderbird= 98 Jan 16, 2013 12:43 PM

Hard work on this one huh? ;D
I think you tabbed the part between 00:25 - 00:41 an oktave or two too high.
00:42 - 00:57:

6:-5-----6-5-4-5----|-5-....| 2X
i guess everybody can figure out himself how often to pluck the notes..

The rest is correct, 4 stars.

guest
You may want to rate the tab now too:
select rating
Wanna post a correction for this tab? Suggest correction