Oops, an error
Loading. Please wait.

Burn It Off Tab

version 1
version 1

Whole song

Interactive

25 views 1 this week
no commentswrite comment
1 2 3 4 5
3 more votes to show rating
add to favorites
launch autoscroll
font size
0
reset
how to read this tab
guitar tuner
Autoscroll
slow
fast
+/-
esc
set tempo
stop
Help us to improve Ultimate-Guitar.com Take our survey!
×
Author
Difficulty
newg [tm] 45,817
intermediate
----------------------------------------------------------------------------------------------------
                          Blues Explosion - Burn It Off
----------------------------------------------------------------------------------------------------

Album : Damage (2004)
Tempo : 135
E-mail: gwendal.mollo@orange.fr
Tabbed by: newg    (http://profile.ultimate-guitar.com/newg/)

[Intro]

e|-------------------|
B|-------------------|
G|-------------------|
D|-------------------|
A|-----x-------------|
E|-----7s------------|


e|----------------------------|----------------------------|
B|----------------------------|----------------------------|
G|-----------------------4----|----------------------------|
D|-----------------------4----|--------6-----4-----6--x----|
A|-----------2--5--5--4--2----|--------2-----2-----2--0----|
E|--0-----4-------------------|-----------------------0----|


e|----------------------------|----------------------------|
B|----------------------------|----------------------------|
G|----------------------------|-------------4b---4--1------|
D|----------------------------|-----0h2h4-------------4--2-|
A|-----------2L-2-----5-0-2L--|--2-------------------------|
E|--0-0-4h5-------------------|----------------------------|

e|----------------------------|----------------------------|
B|----------------------------|----------------------------|
G|------------------------4---|----------------------------|
D|------------------------4---|--------6-----4-----6--4----|
A|-----------2-----5--0---2---|--------2-----2-----2--2----|
E|--0-0-4-----------------0---|----------------------------|

e|----------------------------|----------------------------|
B|----------------------------|----------------------------|
G|----------------------------|--9-------------------------|
D|----------------------------|--9-------------------------|
A|-----------2-----5--4---2---|--7-------------------------|
E|--0--0-4-5------------------|--7-------------------------|

e|----------------------------|
B|----------------------------|
G|----------------------------|
D|--4---4----------4---4------|
A|--2---2---x--x---2---2--x---|
E|----------------------------| x4

Guitar 2 :


e|--12-------------17s--18s---|--19-----------------------|
B|----------------------------|---------------------------|
G|--9--------------14s--16s---|--16-----------------------|
D|----------------------------|---------------------------|
A|----------------------------|---------------------------|
E|----------------------------|---------------------------| x3

e|--12------------------------|
B|----------------------------|
G|--9-------------------------|
D|----------------------------|
A|----------------------------|
E|----------------------------| x3



[Verse]

e|----------------------------|
B|----------------------------| 
G|----------------------------|
D|--4---4----------4---4------|
A|--2---2---x--x---2---2--x---|
E|----------------------------| x6


[Chorus]

   E5                           B5
e|----------------------------|----------------------------|
B|----------------------------|----------------------------|
G|-----------------------4----|----------------------------|
D|-----------------------4----|--------6-----4-----6--x----|
A|-----------2--5--5--4--2----|--------2-----2-----2--0----|
E|--0-----4-------------------|-----------------------0----|


   E5                           B5
e|----------------------------|----------------------------|
B|----------------------------|----------------------------|
G|----------------------------|-----4b-----2-4b------------|
D|----------------------------|----------------------------|
A|-----------2L-2-----5-0-2L--|--2-------------------------|
E|--0-0-4h5-------------------|----------------------------|

   E5                           B5
e|----------------------------|----------------------------|
B|----------------------------|----------------------------|
G|------------------------4---|----------------------------|
D|------------------------4---|--------6-----4-----6--4----|
A|-----------2-----5--0---2---|--------2-----2-----2--2----|
E|--0-0-4-----------------0---|----------------------------|

   E5                           B5
e|----------------------------|----------------------------|
B|----------------------------|----------------------------|
G|----------------------------|--9-------------------------|
D|----------------------------|--9-------------------------|
A|-----------2---5---4---2----|--7-------------------------|
E|--0--0-4-5------------------|--7-------------------------|


[Bridge]


e|---------------------------|----------------------------|----------------------------|----|
B|-8--------8L----------8----|--5--------5L----------5----|----------------------------|----|
G|---------------------------|----------------------------|----------------------------|----|
D|---------------------------|----------------------------|--4--4--6--4--4--4--6--4----|- %-|
A|---------------------------|----------------------------|--2--2--2--2--2--2--2--2----|----|
E|---------------------------|----------------------------|----------------------------|----| x2


Suggest correction
Give kudos to tab author, rate the tab!
1 2 3 4 5
comments
print report bad tab
guest
You may want to rate the tab now too:
select rating
Wanna post a correction for this tab? Suggest correction