Oops, an error
Loading. Please wait.

The End Of The World Tab

49 views 12 this week
no commentswrite comment
1 2 3 4 5
2 more votes to show rating
add to favorites
launch autoscroll
font size
0
reset
how to read this tab
guitar tuner
Autoscroll
slow
fast
+/-
esc
set tempo
stop
Help us to improve Ultimate-Guitar.com Take our survey!
×
Author
song: the end of the world
album: new songs
artist: jon walker

i tabbed the solo completely by ear which i haven't done for a long time, but i think it's accurate! enjoy :]

(G5: 3 2 0 0 0 0) (you can play just a G instead, but i think this works better)

[INTRO:]
e|----------------------------------------------| 
B|----------------------------------------------|
G|----------------------------------------------|
D|----------------------------------------------|
A|----------------------------------------------|
E|--0--2----------------------------------------|

(G        C)            
once upon a time
i thought that i had my whole life
under control
now i know i can't begin to comprehend 
the things that i don't know (G)

D
the end of the world 
       C
is the name of a girl 
    Em                    C
who left you for somebody else 
       A                        Am
'cause you didn't love her like you loved yourself 

[G + C break] 

(G           C)            
you'll never win when you're against the wind 
in a game where it makes up the rules 
sink or just swim until your arms give in 
believe me, they eventually do 

D
the end of the world 
       C
is the name of a girl 
    Em                    C
who left you for somebody else 
       A                        Am
'cause you didn't love her like you loved yourself

[SOLO] (G + C continues)

e|----------------------------------------------| 
B|-3--5--------------------3--5-----------------|
G|-------3--4--0--2--4-----------3--4--0--2--0--|
D|----------------------------------------------|
A|----------------------------------------------|
E|----------------------------------------------|

e|----------------------------------------------| 
B|----------------------------------------------|
G|(0)(0)(0)-0-----0--2/4-4--2--0----------------|
D|------------0h2-----------------2-0-----0-----|
A|------------------------------------0h2-------|
E|----------------------------------------------|

e|----------------------------------------------| 
B|----------------------------------------------|
G|-0-----0--2/4-4--2--0-------------------------|
D|---0h2-----------------2p0---0----------------|
A|---------------------------2------------------|
E|----------------------------------------------|

e|----------------------------------------------------------------| 
B|--------------------------------------------------5-3-0---------|
G|-----0----------------------0-----0--2/4-4--2--0----------------|
D|---0---4---2-0----------------0h2-------------------------------|
A|-2----------------2p0-------------------------------------------|
E|-----------------------3----------------------------------------|

D
the end of the world 
       C
is the name of a girl 
    Em                    C
who left you for somebody else 
       A                        Am
'cause you didn't love her like you loved yourself

[G + C break]

(G           C)            
i hope there come a time 
we can all realize how wonderful she really is 
and all of her kids get a fair chance to live 
     G             C           G5
in a world that is each one of ours
Suggest correction
Give kudos to tab author, rate the tab!
1 2 3 4 5
comments
print report bad tab
guest
You may want to rate the tab now too:
select rating
Wanna post a correction for this tab? Suggest correction