Oops, an error
Loading. Please wait.

Once You Love tab

94 views 3 this week
no commentswrite comment
1 2 3 4 5
3 more votes to show rating
add to favorites
×
Save as Personal and add changes to this tab that will be seen only by you. Learn more ›
×
You can save this tab as Personal to edit and correct it or add notes. All changes will be seen only by you. Learn more »
launch autoscroll
font size
0
reset
how to read this tab
guitar tuner
edit
Autoscroll
slow
fast
+/-
esc
set tempo
stop
"Once You Love" Chords
Jonah Blacksmith

[Verse 1]
F
Afraid of losing
         C
Once you love
G                   F
The fear tears you apart

And in the night time
            C
I watch you go
G
Into a dream
             F
That no one knows

[Chorus]
Am                           G
You know you can't lift this stone
C                          G
You know how it feels
Am                G
The hard part is letting go
         F
But some say
Am                 G
By love life is real

[Interlude]
    G                    G                          F
e|--3--------0-3-0-------3------0-3-0---------------1--------------|
B|--3-----3---------3----3----3---------3-1-1-3-----1--------------|
G|--0--------------------0-----------------------2--2--------------|
D|--0--------------------0--------------------------3--------------|
A|--2--------------------2--------------------------3--------------|
E|--3--------------------3--------------------------1--------------|

[Verse]
F
Afraid of losing
            C
The way you lie
G                                   F   
When you tell me that it's all all right
                              C
And times like those I calmly go
G                           F
Into a dream that's full of hope

[Chorus]
Am                       G
I know I can't lift this stone
C             G
I know how it feels
Am                       G
The hard part is letting go
          F
But some say
Am               G
By love life is real

[Bridge]
C                                 G
Only when you live your life with love
 F                              G
Only when you reach for the sky above
C                                     G
Only when you love you can lose your love
F
I'm gonna hold it close
            C
To the sky above 

[Outro]
    G                    G                          F
e|--3--------0-3-0-------3------0-3-0---------------1--------------|
B|--3-----3---------3----3----3---------3-1-1-3-----1--------------|
G|--0--------------------0-----------------------2--2--------------|
D|--0--------------------0--------------------------3--------------|
A|--2--------------------2--------------------------3--------------|
E|--3--------------------3--------------------------1--------------|

By Sigurd Gansted

            
            
Suggest correction
Creating personal tab
Creating personal tab
You can edit any tab online and save it as your Personal.

You can edit, replace or remove any tab part or add personal notes – all changes will be seen only by you.

Personal tabs can be accessed anytime from any device, even offline.
Learn more »
Give kudos to tab author, rate the tab!
1 2 3 4 5
comments
print report bad tab
guest
Wanna post a correction for this tab? Suggest correction