Oops, an error
Loading. Please wait.

Fast Car chords

11,374 views 126 this week
1 commentread comment
1 2 3 4 5
x 30
add to favorites
×
Save as Personal and add changes to this tab that will be seen only by you. Learn more ›
×
You can save this tab as Personal to edit and correct it or add notes. All changes will be seen only by you. Learn more »
launch autoscroll
font size
0
reset
transpose
0
reset
simplify chords
display chords
guitar tuner
edit
Autoscroll
slow
fast
+/-
esc
set tempo
stop
Strumming
There is no strumming pattern for this song yet. and get +5 IQ
[Intro]

Cmaj7  G   Em  D   
Cmaj7  G   Em  D   
Cmaj7  G   Em  D   
Cmaj7  G   Em  D   


[Verse]

Cmaj7          G 
You got a fast car
Em              D
I want a ticket to anywhere
Cmaj7           G 
Maybe we make a deal
Em                    D
Maybe together we can get somewhere
Cmaj7       G
Anyplace is better
Em                 D
Starting from zero got nothing to lose
Cmaj7            G
Maybe we'll make something
Em               D
Me, myself I got nothing to prove


[Verse]

Cmaj7          G
You got a fast car
Em           D
I got a plan to get us out of here
Cmaj7                    G
I been working at the convenience store
Em              D
Managed to save just a little bit of money
Cmaj7               G
Won't have to drive too far
Em                     D
Just 'cross the border and into the city
Cmaj7     G
You and I can both get jobs
    Em          D
And finally see what it means to be living
Cmaj7          G
You got a fast car
      Em          D
Is it fast enough so we can fly away?
Cmaj7         G
We gotta make a decision
Em               D
Leave tonight or live and die this way


[Pre-Chorus]

e|-------------------------|-----------------------|
B|-------------------------|--10--10--9--9--9--9---|
G|-----6--6----9--9--9--9--|-----------------------|
D|-------------------------|-----------------------| x4
A|-------------------------|-----------------------|
E|-------------------------|-----------------------|


[Chorus]

e|-------------------------|-----------------------|
B|-------------------------|--10--10--9--9--9--9---|
G|-----6--6----9--9--9--9--|-----------------------|
D|-------------------------|-----------------------|x6
A|-------------------------|-----------------------|
E|-------------------------|-----------------------|
'So i remember when we were driving, driving in your car'

e|-------------------------|------7----------------|
B|-------------------------|--10-----10--9--10--9--|
G|-----6--6----9--9--9--9--|-----------------------|
D|-------------------------|-----------------------|x1
A|-------------------------|-----------------------|
E|-------------------------|-----------------------|

e|-------------------------|-----------------------|
B|-------------------------|--10--10--9--9--9--9---|
G|-----6--6----9--9--9--9--|-----------------------|
D|-------------------------|-----------------------|x1
A|-------------------------|-----------------------|
E|-------------------------|-----------------------|


[Verse]
   
        Cmaj7        G
You see my old man's got a problem
   Em                   D
He live with the bottle that's the way it is
            Cmaj7          G
He says his body's too old for working
    Em               D   
His body's too young to look like his
   Cmaj7         G
My mama went off and left him
    Em                         D
She wanted more from life than he could give
       Cmaj7             G
I said somebody's got to take care of him
   Em             D
So I quit school and that's what I did


[Verse]

Cmaj7          G
You got a fast car
Em             D
We go cruising to entertain ourselves
    Cmaj7             G
You still ain't got a job
  Em               D
I work in a market as a checkout girl
Cmaj7         G
I know things will get better
Em               D
You'll find work and I'll get promoted
Cmaj7          G
We'll move out of the shelter
Em                 D
Buy a bigger house and live in the suburbs
Cmaj7          G
You got a fast car
      Em          D
Is it fast enough so we can fly away
Cmaj7         G 
We gotta make a decision
Em               D
Leave tonight or live and die this way


[Pre-Chorus]

e|-------------------------|-----------------------|
B|-------------------------|--10--10--9--9--9--9---|
G|-----6--6----9--9--9--9--|-----------------------|
D|-------------------------|-----------------------| x4
A|-------------------------|-----------------------|
E|-------------------------|-----------------------|


[Chorus]

e|-------------------------|-----------------------|
B|-------------------------|--10--10--9--9--9--9---|
G|-----6--6----9--9--9--9--|-----------------------|
D|-------------------------|-----------------------| x6
A|-------------------------|-----------------------|
E|-------------------------|-----------------------|
'So i remember when we were driving, driving in your car'

e|-------------------------|------7----------------|
B|-------------------------|--10-----10--9--10--9--|
G|-----6--6----9--9--9--9--|-----------------------|
D|-------------------------|-----------------------| x1
A|-------------------------|-----------------------|
E|-------------------------|-----------------------|

e|-------------------------|-----------------------|
B|-------------------------|--10--10--9--9--9--9---|
G|-----6--6----9--9--9--9--|-----------------------|
D|-------------------------|-----------------------| x1
A|-------------------------|-----------------------|
E|-------------------------|-----------------------|

            
            
Suggest correction
Creating personal tab
Creating personal tab
You can edit any tab online and save it as your Personal.

You can edit, replace or remove any tab part or add personal notes – all changes will be seen only by you.

Personal tabs can be accessed anytime from any device, even offline.
Learn more »
comments
print report bad tab
1 comment total.
0 reply
maxlis22 14 Apr 03, 2016 06:43 AM

Sounds very good, especially the chords ! I'm not sure, but i think instead of Cmaj7 you can play C, too. It sounds very similar :)

guest
You may want to rate the tab now too:
select rating
Wanna post a correction for this tab? Suggest correction