Oops, an error
Loading. Please wait.

6 Minutes Tab

version 2
version 2

Whole song

196 views 3 this week
no commentswrite comment
1 2 3 4 5
please rate
add to favorites
launch autoscroll
font size
0
reset
how to read this tab
guitar tuner
Autoscroll
slow
fast
+/-
esc
set tempo
stop
Help us to improve Ultimate-Guitar.com Take our survey!
×
Contributor
Difficulty
novice
Hi guys, this is my first tab. I've been searching for a precise tab for this song but I couldn't
find one, so I had to learn the song by ear. Please tell me if there are any mistakes, I'll be
sure to fix them!


   Intro:
e|----5333333333333555-------533-----------------------------------------------------------|
B|----3333333333333333--x2---333----3------------------------------------------------------|
G|----------------------------------5b6(slow bend)x16--------------------------------------|
D|-----------------------------------------------------------------------------------------|
A|-----------------------------------------------------------------------------------------|
E|-----------------------------------------------------------------------------------------|

  Verse 1:
e|--------x-x----x-x----x-x---x-x---x-x-7-x-x-7-x-x----x-x--------------3------------------|x3
B|--------x-x-12-x-x-12-x-x-7-x-x-7-x-x-8-x-x-8-x-x-8--x-x-8------------5------------------|
G|--------x-x-12-x-x-12-x-x-7-x-x-7-x-x-9-x-x-9-x-x-9--x-x-9------or----5------------------|
D|--------x-x-12-x-x-12-x-x-7-x-x-7-x-x-9-x-x-9-x-x-10-x-x-10------------------------------|
A|--------x-x----x-x----x-x---x-x---x-x---x-x---x-x----x-x---------------------------------|
E|--------x-x----x-x----x-x---x-x---x-x---x-x---x-x----x-x---------------------------------|

  Pre-Chorus:
e|--------x-x----x-x----x-x---x-x---x-x-7-x-x-7--------------------------------------------|
B|--------x-x-12-x-x-12-x-x-7-x-x-7-x-x-8-x-x-8---------8----------------------------------|
G|--------x-x-12-x-x-12-x-x-7-x-x-7-x-x-9-x-x-9---------9----------------------------------|
D|--------x-x-12-x-x-12-x-x-7-x-x-7-x-x-9-x-x-9---------10-x8------------------------------|
A|--------x-x----x-x----x-x---x-x---x-x---x-x----------------------------------------------|
E|--------x-x----x-x----x-x---x-x---x-x---x-x----------------------------------------------|

  Chorus:
e|-----------------------------------------------------------------------------------------|
B|-----------------------------------------------------------------------------------------|
G|---5-------------5------------7-----5------------5----------7-----5-----5\---------------|
D|---5------2------5------5-----7-----5------2-----5-----5----7-----5-----5\---------------|
A|---3-x16--2-x16--3-x16--5-x8--5-x8--3-x16--2-x16-3-x16-5-x8-5-x8--3-x8--3\---------------|
E|----------0-------------3------------------0-----------3---------------------------------|
                          |          |
                         e|----------|
                         B|---8v-----|
                         G|---7v-x16-| Lead Fill
                         D|----------|
                         A|----------|
                         E|----------|


  Verse 1:
e|--------x-x----x-x----x-x---x-x---x-x-7-x-x-7-x-x----x-x--------------3------------------|x3
B|--------x-x-12-x-x-12-x-x-7-x-x-7-x-x-8-x-x-8-x-x-8--x-x-8------------5------------------|
G|--------x-x-12-x-x-12-x-x-7-x-x-7-x-x-9-x-x-9-x-x-9--x-x-9------or----5------------------|
D|--------x-x-12-x-x-12-x-x-7-x-x-7-x-x-9-x-x-9-x-x-10-x-x-10------------------------------|
A|--------x-x----x-x----x-x---x-x---x-x---x-x---x-x----x-x---------------------------------|
E|--------x-x----x-x----x-x---x-x---x-x---x-x---x-x----x-x---------------------------------|

  Pre-Chorus:
e|--------x-x----x-x----x-x---x-x---x-x-7-x-x-7--------------------------------------------|
B|--------x-x-12-x-x-12-x-x-7-x-x-7-x-x-8-x-x-8---------8----------------------------------|
G|--------x-x-12-x-x-12-x-x-7-x-x-7-x-x-9-x-x-9---------9----------------------------------|
D|--------x-x-12-x-x-12-x-x-7-x-x-7-x-x-9-x-x-9---------10-x8------------------------------|
A|--------x-x----x-x----x-x---x-x---x-x---x-x----------------------------------------------|
E|--------x-x----x-x----x-x---x-x---x-x---x-x----------------------------------------------|

  Bridge:
e|--------3~---------7~---------3~--------x-x--7---------------------------------|
B|--------3~---------8~---------3~--------x-x--8----5-----------5-----------7----|
G|----------------------------------------x-x--9----5-----2-----5------5----7----|
D|----------------------------------------x-x-------3-X16-2-X16-3--X16-5-X8-5--|
A|----------------------------------------x-x-------------0------------3---------|
E|----------------------------------------x-x------------------------------------|

  Chorus:
e|-----------------------------------------------------------------------------------------|
B|-----------------------------------------------------------------------------------------|
G|---5-------------5------------7-----5------------5----------7-----5-----5\---------------|
D|---5------2------5------5-----7-----5------2-----5-----5----7-----5-----5\---------------|
A|---3-x16--2-x16--3-x16--5-x8--5-x8--3-x16--2-x16-3-x16-5-x8-5-x8--3-x8--3\---------------|
E|----------0-------------3------------------0-----------3---------------------------------|
                          |          |
                         e|----------|
                         B|---8v-----|
                         G|---7v-x16-| Lead Fill
                         D|----------|
                         A|----------|
                         E|----------|
   Outro:
e|--------------------------|
B|--------------------------|
G|-5--------------12\-------|
D|-5--------------12\-------|
A|-3-x16----------10\-------|
E|--------------------------|
 |
 |
 | Lead Fill
e|--------------------------|
B|----8----------8\---------|
G|----7-x16------7\---------|
D|--------------------------|
A|--------------------------|
E|--------------------------|


v - vibrato
\ - slide down
~ - ring
b - bend
Suggest correction What's this?
You can suggest a correction to this tab. Community and Mods will review your correction and vote to approve or reject it.
comments
We did not receive enough feedback on this tab! Please rate:
print report bad tab
1 2 3 4 5
I want to post or [tab]
guest
You may want to rate the tab now too:
select rating
Please do not post tabs as comments. Select "correction" instead!