Oops, an error
Loading. Please wait.

705 Tab

version 2
version 2

Whole song

1,396 views 1 this week
no commentswrite comment
1 2 3 4 5
please rate
add to favorites
launch autoscroll
font size
0
reset
how to read this tab
guitar tuner
Autoscroll
slow
fast
+/-
esc
set tempo
stop
Help us to improve Ultimate-Guitar.com Take our survey!
×
JONAS BROTHERS  - 7:05

INTRO
e|------------------------------------------|
B|---------------------------------------33-|
G|--55555555-888-666-55----------666-555-33-|
D|--66666666-888-666-55-33333333-666-555-11-|
A|--66666666-666-444-33-33333333-444-333----|
E|--44444444------------11111111------------|

VERSE
e|----------------    e|----------------------|
B|----------------    B|----------------------|
G|--55----55-66-6- x2 G|--55-66-55-3-33333333-|
D|--66-88-55-66-6-    D|--55-66-55-4-44444444-|
A|--66-88-33-44-4-    A|--33-44-33-4-44444444-|
E|--44-66---------    E|-----------2-22222222-|


CHORUS
e|------------------------------------------|
B|---------------------------------------33-|
G|--55555555-888-666-55----------666-555-33-| x3
D|--66666666-888-666-55-33333333-666-555-11-|
A|--66666666-666-444-33-33333333-444-333----|
E|--44444444------------11111111------------|

VERSE

CHORUS

BRIDGE
e|---------------------------------|
B|---------------------------------|
G|--5--8--5-8- 8--6--8-- 8-8- 9--6-|
D|--6--8--6-8- 8--6--8-- 8-8- 9--6-|
A|--6--6--6-6-10--4--6--10-6-11--4-|
E|--4-----4------------------------|

CHORUS [repeat the riff x7]
Suggest correction
Give kudos to tab author, rate the tab!
1 2 3 4 5
comments
print report bad tab
guest
You may want to rate the tab now too:
select rating
Please do not post tabs as comments. Select "correction" instead!