Oops, an error
Loading. Please wait.

A Little Bit Longer Tab

version 1
version 1

Whole song

Interactive

16,701 views 3 this week
4 commentsread comments
1 2 3 4 5
please rate
add to favorites
launch autoscroll
font size
0
reset
how to read this tab
guitar tuner
Autoscroll
slow
fast
+/-
esc
set tempo
stop
Help us to improve Ultimate-Guitar.com Take our survey!
×
Author
Difficulty
novice
                    ---A Little Bit Longer---
                   --Tabbed by aBoVeAvErAgE x3--


This song is in 4/4 time.

Intro

E-----------------------------------------------------------------]
B-----------------------------------------------------------------]
G---5----------------------------4--------------------------------]
D---5--------------2-------------4--------------------------------]
A---3--------------2-------------2--------------------------------]
E------------------0----------------------------------------------]

E-----------------------------------------------------------------]
B-----------------------------------------------------------------]
G---5----------------------------4--------------------------------]
D---5--------------2-------------4--------------------------------]
A---3--------------2-------------2--------------------------------]
E------------------0----------------------------------------------]

Verse 1

E-----------------------------------------------------------------]
B-----------------------------------------------------------------]
G---5-------------------------------------------------------------]
D---5----------------------------3--------------------------------]
A---3----------------------------3--------------------------------]
E--------------------------------1--------------------------------]
    Got the news today   But they said I had to stay

E-----------------------------------------------------------------]
B-----------------------------------------------------------------]
G---------------------------------5-------------------------------]
D---------------5-----------3-----5-------------------------------]
A---------------5-----------3-----3-------------------------------]
E---------------3-----------1-------------------------------------]
    A little bit longer and I'll be fine

E-----------------------------------------------------------------]
B-----------------------------------------------------------------]
G---5-------------------------------------------------------------]
D---5-------------------------------------3-----------------------]
A---3-------------------------------------3-----------------------]
E-----------------------------------------1-----------------------]
    When I thought it'd all be done When I thought it'd all been said

E-----------------------------------------------------------------]
B-----------------------------------------------------------------]
G---------------------------------5-------------------------------]
D---------------5-----------3-----5-------------------------------]
A---------------5-----------3-----3-------------------------------]
E---------------3-----------1-------------------------------------]
    A little bit longer and I'll be fine

Chorus 1

E-----------------------------------------------------------------]
B-----------------------------------------------------------------]
G---5-----------------------------------------4-------------------]
D---5---------------------------2-------------4-------------------]
A---3---------------------------2-------------2-------------------]
E-------------------------------0---------------------------------]
    But you don't know what you got 'til it's gone   And you

E-----------------------------------------------------------------]
B-----------------------------------------------------------------]
G---5-----------------------------------4-------------------------]
D---5--------------------2--------------4-------------------------]
A---3--------------------2--------------2-------------------------]
E------------------------0----------------------------------------]
    don't know what it's like to feel so low         And

E-----------------------------------------------------------------]
B-----------------------------------------------------------------]
G---5--------------------------------4----------------------------]
D---5---------------2----------------4----------------------------]
A---3---------------2----------------2----------------------------]
E-------------------0---------------------------------------------]
    every time you smile or laugh you glow        You don't even

E-----------------------------------------------------------------]
B-----------------------------------------------------------------]
G---5--------------------------------4----------------------------]
D---5---------------2----------------4----------------------------]
A---3---------------2----------------2----------------------------]
E-------------------0---------------------------------------------]
    know            know             know        You don't even

E-----------------------------------------------------------------]
B-----------------------------------------------------------------]
G---5-------------------------------------------------------------]
D---5-------------------------------------------------------------]
A---3-------------------------------------------------------------]
E-----------------------------------------------------------------]
    know

Verse 2

E-----------------------------------------------------------------]
B-----------------------------------------------------------------]
G---5----5----5----5----------------------------------------------]
D---5----5----5----5-------3----3----3----3-----------------------]
A---3----3----3----3-------3----3----3----3-----------------------]
E--------------------------1----1----1----1-----------------------]
   All this time moves by  Still no reason why

E-----------------------------------------------------------------]
B-----------------------------------------------------------------]
G-----------------------------------5----5----5----5--------------]
D---------------5----5----3----3----5----5----5----5--------------]
A---------------5----5----3----3----3----3----3----3--------------]
E---------------3----3----1----1----------------------------------]
    A little bit longer and I'll be fine

E-----------------------------------------------------------------]
B-----------------------------------------------------------------]
G---5----5----5----5----------------------------------------------]
D---5----5----5----5-------3----3----3----3-----------------------]
A---3----3----3----3-------3----3----3----3-----------------------]
E--------------------------1----1----1----1-----------------------]
    Waitin' on a cure  But none of them are sure

E-----------------------------------------------------------------]
B-----------------------------------------------------------------]
G-----------------------------------5----5----5----5--------------]
D---------------5----5----3----3----5----5----5----5--------------]
A---------------5----5----3----3----3----3----3----3--------------]
E---------------3----3----1----1----------------------------------]
    A little bit longer and I'll be fine

Chorus 2

E-----------------------------------------------------------------]
B-----------------------------------------------------------------]
G-----------5----5-----------------------------4----4----4----4---]
D-----------5----5--------------2----2---------4----4----4----4---]
A-----------3----3--------------2----2---------2----2----2----2---]
E-------------------------------0----0----------------------------]
    But you don't know what you got 'til it's gone

E-----------------------------------------------------------------]
B-----------------------------------------------------------------]
G-----------5----5-----------------------------4----4----4----4---]
D-----------5----5--------------2----2---------4----4----4----4---]
A-----------3----3--------------2----2---------2----2----2----2---]
E-------------------------------0----0----------------------------]
    And you don't know what it's like to feel so low

E-----------------------------------------------------------------]
B-----------------------------------------------------------------]
G-----------5----5------------------------4----4------------------]
D-----------5----5---------2----2---------4----4------------------]
A-----------3----3---------2----2---------2----2------------------]
E--------------------------0----0---------------------------------]
        And every time you smile or laugh you glow

E-----------------------------------------------------------------]
B-----------------------------------------------------------------]
G----5----4----------------------------4--------------------------]
D----5----4--------3----3----2----2----4--------------------------]
A----3----2--------3----3----2----2----2--------------------------]
E------------------1----1----0----0-------------------------------]
    You don’t even know,     know,     know.   You don’t even

E-----------------------------------------------------------------]
B-----------------------------------------------------------------]
G---5--------------------------------4----------------------------]
D---5---------------2----------------4----------------------------]
A---3---------------2----------------2----------------------------]
E-------------------0---------------------------------------------]
    know            know             know        You don't even

E-----------------------------------------------------------------]
B-----------------------------------------------------------------]
G---5--------------------------------4----------------------------]
D---5---------------2----------------4----------------------------]
A---3---------------2----------------2----------------------------]
E-------------------0---------------------------------------------]
    know            know             know

Interlude/Solo Part (I will post the solo later, but for now this is what Kevin and Joe play.)

E-----------------------------------------------------------------]
B-----------------------------------------------------------------]
G---5----5----5----5------------------------4--4--4--4--4--4--4--4]
D---5----5----5----5----2----2----2----2----4--4--4--4--4--4--4--4]
A---3----3----3----3----2----2----2----2----2--2--2--2--2--2--2--2]
E-----------------------0----0----0----0--------------------------]

E-----------------------------------------------------------------]
B-----------------------------------------------------------------]
G---5----5----5----5------------------------4--4--4--4--4--4--4--4]
D---5----5----5----5----2----2----2----2----4--4--4--4--4--4--4--4]
A---3----3----3----3----2----2----2----2----2--2--2--2--2--2--2--2]
E-----------------------0----0----0----0--------------------------]
                                                            But you
Chorus 3

E-----------------------------------------------------------------]
B-----------------------------------------------------------------]
G---5----5----5----5------------------------4--4--4--4--4--4--4--4]
D---5----5----5----5----2----2----2----2----4--4--4--4--4--4--4--4]
A---3----3----3----3----2----2----2----2----2--2--2--2--2--2--2--2]
E-----------------------0----0----0----0--------------------------]
   don't know what you got 'til it's        gone.          And you
E-----------------------------------------------------------------]
B-----------------------------------------------------------------]
G---5----5----5----5------------------------4--4--4--4--4--4--4--4]
D---5----5----5----5----2----2----2----2----4--4--4--4--4--4--4--4]
A---3----3----3----3----2----2----2----2----2--2--2--2--2--2--2--2]
E-----------------------0----0----0----0--------------------------]
    don't know what it's like to feel so    low.             And
E-----------------------------------------------------------------]
B-----------------------------------------------------------------]
G---5----5----5----5------------------------4--4--4--4--5----4----]
D---5----5----5----5----2----2----2----2----4--4--4--4--5----4----]
A---3----3----3----3----2----2----2----2----2--2--2--2--3----2----]
E-----------------------0----0----0----0--------------------------]
    every time you      smile or laugh you  glow.      You don't even
E-----------------------------------------------------------------]
B-----------------------------------------------------------------]
G---5----5----5----5------------------------4--4--4--4--4--4--4--4]
D---5----5----5----5----2----2----2----2----4--4--4--4--4--4--4--4]
A---3----3----3----3----2----2----2----2----2--2--2--2--2--2--2--2]
E-----------------------0----0----0----0--------------------------]
    know!

Interlude 2/ Solo 2
E-----------------------------------------------------------------]
B-----------------------------------------------------------------]
G---5----5----5----5------------------------4--4--4--4--4--4--4--4]
D---5----5----5----5----2----2----2----2----4--4--4--4--4--4--4--4]
A---3----3----3----3----2----2----2----2----2--2--2--2--2--2--2--2]
E-----------------------0----0----0----0--------------------------]

E-----------------------------------------------------------------]
B-----------------------------------------------------------------]
G---5----5----5----5------------------------4--4--4--4--4--4--4--4]
D---5----5----5----5----2----2----2----2----4--4--4--4--4--4--4--4]
A---3----3----3----3----2----2----2----2----2--2--2--2--2--2--2--2]
E-----------------------0----0----0----0--------------------------]

Verse 3

E-----------------------------------------------------------------]
B-----------------------------------------------------------------]
G---------5-------------------------------------------------------]
D---------5--------------------------------3----------------------]
A---------3--------------------------------3----------------------]
E------------------------------------------1----------------------]
   So I'll wait 'til kingdom come.  All the highs and lows are gone.

E----------------------------------------------------------------3]
B----------------------------------------------------------------3]
G---------------------------------5--------2---------------------5]
D---------------5-----------3-----5--------2-------3-------------5]
A---------------5-----------3-----3--------0-------3-------------3]
E---------------3-----------1----------------------1-------------3]
    A little bit longer and I'll be fine                 I'll be fine.


Some of the chords may be slightly off in timeimg with the words but if you listen to
song  you can here exactly when he plays them. So some chords may be spaced apart more
others but most of the time they are played in the exact same time. Just listen to the
I tried my best to put it with the words. Like I said above about the solo part...I'll
to get it up a later but for now this is it. I tabbed this using the stripped
of this on z100 where there are no screaming fans so you could actually here the song perfectly.


P.S.- This is an ultimate-guitar user tabbing this song for ultimate guitar. I'd
it if other users of this website or other guitar tabbing websites not copy and paste
on
accounts by takeing out this part and calling it theirs. It's quite annoying when I want
look up a tab and it says there are different versions but its really the same thing.
I just want everyone to know that this is the original and any other person that has
exact thing is just copieng and pasting it. And I'm not saying that tabs can't be similar
come on the exact same thing where everything is in the same format and spot and the 
same things are said? Impossible because no two people think that alike. Well thats
a little note to everyone.(This is not just coming to me, I've spoken to other user also
they agree.)

P.P.S- I hope you enjoy this tab!! Solo up later!
Suggest correction new What's this?
You can suggest a correction to this tab. Community and Mods will review your correction and vote to approve or reject it.
comments
We did not receive enough feedback on this tab! Please rate:
print report bad tab
1 2 3 4 5
4 comments total. Showing first comments.
0 reply
melly95 46 wrote on July 22 2008, 06:12 am

'I WANT THE SOLO xD

0 reply
JBrocks123 11 wrote on August 3 2008, 02:32 pm

Please post the solo quick!

0 reply
mileyjonasfan08 85 wrote on August 6 2008, 09:31 pm

of course the solos not wat kevin an nnick play thats crapy how they dont play solos

guest
You may want to rate the tab now too:
select rating
Please do not post tabs as comments. Select "correction" instead!