Oops, an error
Loading. Please wait.

A Little Bit Longer Chords

version 5
version 5
5,390 views 1 this week
3 commentsread comments
1 2 3 4 5
x 3
add to favorites
launch autoscroll
font size
0
reset
transpose
0
reset
display chords
guitar tuner
Autoscroll
slow
fast
+/-
esc
set tempo
stop
Help us to improve Ultimate-Guitar.com Take our survey!
×
Author
when I try to get the tab of this and look at what the other persons tab or chords I 
out and it did not sound right so when you play this be sure to use power chords or simply 
but I recommend power chords sounds right here goes..


       C
 Got the news today,
       G
but they said i had to stay
       A                 G       F
a little bit longer and i'll be fine.
       C
When i thought it'd all been done,
       G
when i thought it'd all been said,
       A                 G       F
a little bit longer and i'll be fine.
       F                  C             G
But you don't know what you got till it's gone
       F                  C             G
and you don't know what it's like to feel so low
       F                  C             G
and everytime you smile or laugh you glow.
(one strum only)
                F    C    G
You don't even know,know,know.
                F
You don't even know.
      C
All this time goes by
      G
still no reason why
      A                  G       F
a little bit longer and i'll be fine.
      C
Waiting on a cure
      G
but none of them are sure.
      A                  G       F
A little bit longer and i'll be fine.
      F                      C             G
But you don't know what you got till it's gone
      F                      C             G
and you don't know what it's like to feel so low.
      F                      C        G
And everytime you smile or laugh you glow.

(one strum only)
                F    C    G
You don't even know,know,know
                F    C    G
You don't even know,know,know
                F    C    G
You don't even know,know,no

(2,3!)

adlib Chords (first part)  F,C,G  (second part,with the slide part) F,C,G slide to A

e|----------------------------------------|
B|--------------10s13---10s13--12-13-12---|
G|----------------------------------------|
D|----------------------------------------|
A|----------------------------------------|
E|----------------------------------------|

e|--------------10--12--13s15-------------|
B|----------------------------------------|
G|----------------------------------------|
D|----------------------------------------|
A|----------------------------------------|
E|----------------------------------------|


e|--------------15-13-12------------------|
B|----------------------------------------|
G|----------------------------------------|
D|----------------------------------------|
A|----------------------------------------|
E|----------------------------------------|

e|----------------------------------------|
B|---------------9-9-7--------------------|
G|----------------------------------------|
D|----------------------------------------|
A|----------------------------------------|
E|----------------------------------------|

e|----------------------------------------|
B|----------------------------------------|
G|---------------7-7-9s10-9s7-5-----------|
D|----------------------------------------|
A|----------------------------------------|
E|----------------------------------------|


(slide G to A)

          F             C             G
And you don't what you got till it's gone,
          F             C                     G    A
and you don't know what it's like to feel so low,yeah!
          F             C              G
And everytime you smile you laugh you glow,

      F            C    G
you don't even know know!

(adlib again) F,C,G    F,C,G slide to A


    C
So i'll wait till kingdom come,
    G
all the highs and lows are gone.
    A                    G       F
A little bit longer and i'll be fine.
  C
(break)
  F        C
I'll be...fine.


ok thats all hope you like it please rate my work this is my first tab and im a filipino 
thanks dats all
Suggest correction
Give kudos to tab author, rate the tab!
1 2 3 4 5
comments
print report bad tab
3 comments total.
-2 reply
BamMargera789 63 Jun 29, 2008 02:17 AM

omg greaaaaaaaaaaaaaat tab!!!!

0 reply
melly95 10 Jul 21, 2008 01:18 PM

its a wrong tab, how can you say it is great? :O OMG! the first one is the right one.. sry -.-

0 reply
madametj 10 Aug 21, 2008 09:30 PM

sounds NOTHING like the song

guest
You may want to rate the tab now too:
select rating
Wanna post a correction for this tab? Suggest correction