Oops, an error
Loading. Please wait.

Australia Bass Tab

version 1
version 1

Whole song

Interactive

2,481 views 1 this week
no commentswrite comment
1 2 3 4 5
please rate
add to favorites
launch autoscroll
font size
0
reset
guitar tuner
Autoscroll
slow
fast
+/-
esc
set tempo
stop
Help us to improve Ultimate-Guitar.com Take our survey!
×
Author
-------------------------------------------------------------------------------
			     AUSTRALIA - Jonas Brothers
-------------------------------------------------------------------------------
Tabbed By : Valerie L 
e-mail: iloled@yahoo.com
Tuning: standard

Intro
G|-------------------------|
D|-22-----------22---------|
A|----33----55-----33------|
E|-------33-----------3----| x2


Chorus
G|----------------------------------------------------------------------------------|
D|--------------------------------------------------------------55------------------|
A|33333333/1010101010101010-33333333/7777-5555-x2--333333-33-55----66666666-33333333|
E|----------------------------------------------------------------------------------|

Verse "I'll wait..."
G|------------------------------------------|
D|------------------------------------------|
A|------------------------------3-3-33-33---|
E|3-3-33-33-2-2-22-22-0-0-00-00-------------| x4 

Pre-Chorus
G|---------------------------------|
D|---------------------------------|
A|-----------------------------3~--|
E3|3-33-33-2-2-22-22-0-0-00-00-----|

Pre-Verse
G|-----------------------------------|
D|-22-----------22-----------545-7-54|
A|----33----55-----33----------------|
E|-------33-----------3--------------| 

Intro x1

Chorus
G|--------------------------------------------|
D|--------------------------------------------|
A|33333333/1010101010101010-33333333/7777-5555|
E|--------------------------------------------| x2

G|--------------------55555555-7777-55|
D|-----------------55-----------------|
A|3333333333-55-77--------------------|
E|------------------------------------|

Verse 
G|----------------------------------------|     
D|----------------------------------------|
A|------------------------------3-3-33-33-|
E|3-3-33-33-2-2-22-22-0-0-00-00-----------|x2 

G|---------------------------------------------------------------------------|
D|5-5-55-55-4-4-44-44-2-2-22-22-----------5-5-55-55-4-4-44-44-2-2-22-22------|
A|------------------------------3-3-33-33-------------------------------33333|
E|---------------------------------------------------------------------------|

Bridge "She'll be there.."
G|-------------------------------------------------777777777|
D|----------------------------------------------55----------|
A|77--------55-----------3333333333333-33-55-77-------------|
E|---5-55-5----3~--2~-x2------------------------------------|

G|----------------------------------------|     
D|----------------------------------------|
A|------------------------------3-3-33-33-|
E|3-3-33-33-2-2-22-22-0-0-00-00-----------|x2 

Chorus
G|----------------------------------------|
D|5-5-55-55-4-4-44-44-2-2-22-22-----------|
A|------------------------------3-3-33-33-|
E|----------------------------------------| x2

keep playing until end of song
G|------------------------------------------|
D|------------------------------------------|
A|------------------------------3-3-33-33---|
E|3-3-33-33-2-2-22-22-0-0-00-00-------------| 


G|----------------|
D|----------------|
A|3~----3/10~-----|
E|----------------|
Suggest correction
What's this?
You can suggest a correction to this tab. Community and Mods will review your correction and vote to approve or reject it.
comments
We did not receive enough feedback on this tab! Please rate:
print report bad tab
1 2 3 4 5
guest
You may want to rate the tab now too:
select rating
Please do not post tabs as comments. Select "correction" instead!