Oops, an error
Loading. Please wait.

Australia Tab

version 1
version 1

Solo

Whole song

Interactive

5,442 views 1 this week
2 commentsread comments
1 2 3 4 5
accurate
x 3
add to favorites
launch autoscroll
font size
0
reset
how to read this tab
guitar tuner
Autoscroll
slow
fast
+/-
esc
set tempo
stop
Help us to improve Ultimate-Guitar.com Take our survey!
×
Difficulty
novice
Surprised no one has uploaded this yet.  Swing eighth notes throughout.

Chords
G5   = 355xxx
D/F# = 254xxx
E5   = 022xxx
C5   = x355xx


e|-------------------------------------|
B|----------------------------12-13-15-|
G|-------------------11-12-14----------|
D|----------10-12-14-------------------|
A|-10-12-14----------------------------|
E|-------------------------------------|
   |------------Triplets-------------|

   G5                       D/F#
e|-15----------15---------|------------------------------|
B|------------------------|------------------------------|
G|----14b16-------14b16---|-14^16--14^16p12-14-14^16-12--|
D|------------------------|------------------------------|
A|------------------------|------------------------------|
E|------------------------|------------------------------|

   E5                              C5
e|--------------------------------|-------------------------|
B|-15-13-12-----------------------|-------------------------|
G|----------14-12----12----12-14--|-14^16-14-12-14^16~~~----|
D|----------------14----14--------|-------------------------|
A|--------------------------------|-------------------------|
E|--------------------------------|-------------------------|
   |---Triplets----|

   G5                         D/F#
e|-17^19-----17^19----17----|-----------------|
B|-----------------------17-|-19^20-----------|
G|--------------------------|-----------------|
D|--------------------------|-----------------|
A|--------------------------|-----------------|
E|--------------------------|-----------------|

   E5                          C5
e|---------------------------|-------------------------------|
B|-20----18-----15\13--11-12-|-------------------------------|
G|---------------------------|-12-10-------------------------|
D|---------------------------|-------12-11-10----------------|
A|---------------------------|----------------12-13-10~~-----|
E|---------------------------|-------------------------------|
   |--Triplets--|                                   *Hold over next bar
                                                     Then slide out of note

p = Pull-off
^ = Bend lower note to higher note
/ = Legato slide
~ = Vibrato
Suggest correction What's this?
You can suggest a correction to this tab. Community and Mods will review your correction and vote to approve or reject it.
comments
We did not receive enough feedback on this tab! Please rate:
print report bad tab
1 2 3 4 5
2 comments total.
0 reply
Slash42x 825 wrote on July 30 2008, 04:43 pm

I can verify this is correct :) the triplets will take some time to work up speed tho

0 reply
Gossip 24 wrote on October 3 2009, 08:41 pm

this sounds great. thanks

I want to post or [tab]
guest
You may want to rate the tab now too:
select rating
Please do not post tabs as comments. Select "correction" instead!