Oops, an error
Loading. Please wait.

Australia Tab

version 1
version 1

Solo

Whole song

Interactive

15,273 views 1 this week
12 commentsread comments
1 2 3 4 5
excellent!
x 7
add to favorites
launch autoscroll
font size
0
reset
how to read this tab
guitar tuner
Tab Pro tools
  • play this tab
  • loop segment
  • change instrument
  • show fretboard
  • metronome
Autoscroll
slow
fast
+/-
esc
set tempo
stop
Contributor
tabbed by: elleattack, www.myspace.com/elreena26


*MISSING SOME PARTS* :(
help me out here.

e|-----------------------------------------------------------------------|
B|-----------------------------------------------------------------------|
G|---9-9---5-5---------7-7-----9-9---5-5---------------------------------|
D|---9-9---5-5---5-5---7-7-----9-9---5-5---5-----------------------------|
A|---7-7---3-3---5-5---5-5-----7-7---3-3---5-----------------------------|
E|---------------3-3-----------------------3-----------------------------|


e|-----------------------------------------------------------------------|
B|-----------------------------------------------------------------------|
G|---9-9---5-5---------7-7-----9-9---5-5---------------------------------|
D|---9-9---5-5---5-5---7-7-----9-9---5-5---5-----------------------------|
A|---7-7---3-3---5-5---5-5-----7-7---3-3---5-----------------------------|
E|---------------3-3-----------------------3-----------------------------|
"you never listen to me , i know im better off alone"


e|-----------------------------------------------------------------------|
B|-----------------------------------------------------------------------|
G|---5-5-5-5-------------5-5-5-5---9-9-9-9---7-7-7-7---------------------|
D|---5-5-5-5---5-5-5-5---5-5-5-5---9-9-9-9---7-7-7-7---------------------|
A|---3-3-3-3---5-5-5-5---3-3-3-3---7-7-7-7---5-5-5-5---------------------|
E|-------------3-3-3-3---------------------------------------------------|
"Everybody knows it's true, They all see through you"


e|-----------------------------------------------------------------------|
B|-----------------------------------------------------------------------|
G|---5-5-5-5-------------5-5-5-5---9-9-9-9---7-7-7-7---------------------|
D|---5-5-5-5---5-5-5-5---5-5-5-5---9-9-9-9---7-7-7-7---------------------|
A|---3-3-3-3---5-5-5-5---3-3-3-3---7-7-7-7---5-5-5-5---------------------|
E|-------------3-3-3-3---------------------------------------------------|
"No it won't be hard to do, Throw away myself from you"


e|-----------------------------------------------------------------------|
B|-----------------------------------------------------------------------|
G|---5-5-5-5-5-5-5-5-----------------------------------------------------|
D|---5-5-5-5-5-5-5-5---5-5-5-5-5-5-5-------------------------------------|
A|---3-3-3-3-3-3-3-3---5-5-5-5-5-5-5-5-----------------------------------|
E|---------------------3-3-3-3-3-3-3-3-----------------------------------|
"oooooohhhh"




*i just got till there*
comments
print report bad tab
12 comments total. Showing first comments.
+1 reply
iluvjonasgurl wrote on November 9 2007, 05:32 pm

is it just me or do they use thoose chords in every song? (lol) one question, do you know what the chord names are?

+1 reply
emilee wrote on November 12 2007, 07:08 pm

haha i noticed that too!

+1 reply
Deviouster wrote on November 30 2007, 12:16 am

@iluvjonasgurl

799 on the A string is an E power chord. 355 on the A string is a C power chord. 355 on the E string
is a G power chord, 577 on the A stirng is a D power chord..

I want to post or [tab]
guest
You may want to rate the tab now too:
select rating
Please do not post tabs as comments. Select "correction" instead!