Oops, an error
Loading. Please wait.

Burnin Up Bass Tab

version 2
version 2

Whole song

Interactive

3,928 views 3 this week
1 commentread comment
1 2 3 4 5
2 more votes to show rating
add to favorites
launch autoscroll
font size
0
reset
guitar tuner
Autoscroll
slow
fast
+/-
esc
set tempo
stop
Help us to improve Ultimate-Guitar.com Take our survey!
×
Difficulty
novice
tabbedby :Isaac 1z44c

    verse x2
   "Im hot, your cold"...
   ------------------------------|
   ------------------------------|
   -2-22----5-55----0-00---------|
   -------------------------3-33-|                                                       
                        Chorus
     "Im slipping into the lava"....
   ---------------------------------------------------------|
   ---------------------------------------------------------|
   -22222222--5555555-000000----------222222202-7-5-5-0000--|
   --------------------------3330303-- -------------------3-|
    verse x4
   ---------------------------------|
   ---------------------------------|
   -2-22----5-55----0-00------------|
   -------------------------3-33-0--|
 Chorus same as up there /\
   Bridge
     "walk in the room"...
   --------------------------------------------------------|
   --------------------------------------------------------|
   -------------------7---5--3-------------------7---5---3-|
   ---3-030---5-050-------------3-33---5-55----------------|
   chorus: no bass on FIRST chorus after "walk in the room" part
   big robs part
  ---------------------------------------------------|
  ---------------------------------------------------|
  -2---5----0-----------2---5-----0------------------|
  ---------------3-----------------------3-----------|

 the rest is the exact same just repeat it

 good luck
Suggest correction
Give kudos to tab author, rate the tab!
1 2 3 4 5
comments
print report bad tab
1 comment total.
0 reply
Iwritemusic12 98 Dec 28, 2008 08:04 PM

Unnecessary notes

guest
You may want to rate the tab now too:
select rating
Wanna post a correction for this tab? Suggest correction