Oops, an error
Loading. Please wait.

Burnin Up Tab

version 4
version 4

Whole song

Interactive

29,825 views 1 this week
6 commentsread comments
1 2 3 4 5
x 3
add to favorites
launch autoscroll
font size
0
reset
how to read this tab
guitar tuner
Autoscroll
slow
fast
+/-
esc
set tempo
stop
Help us to improve Ultimate-Guitar.com Take our survey!
×
This song only has 3 different lines to play, so its very easy. Make sure you tune your 
to the way they played it. Where you see the X's it mean palm mute. So palm mute it two 
If this looks difficult to you, tell me
and i'll change it.

1.
e |-------------------------------------------------------------------|
B |-------------------------------------------------------------------|
G |---------------------7--X-X---7-7----------------------------------|
D |-----9--X-X---9-9----7--X-X---7-7----7--X-X----7-7----5--X-X----5-5|
A |-----9--X-X---9-9----5--X-X---5-5----7--X-X----7-7----5--X-X----5-5|
E |-----7--X-X---7-7--------------------5--X-X----5-5----3--X-X----3-3|
   I'm hot. You're cold. You go around. Like you know

2.
e |-------------------------------------------------------------------|
B |-------------------------------------------------------------------|
G |---------------------7--X-X---7-7----------------------------------|
D |-----9--X-X---9-9----7--X-X---7-7----7--X-X----7-7----5--X-X----5-5|
A |-----9--X-X---9-9----5--X-X---5-5----7--X-X----7-7----5--X-X----5-5|
E |-----7--X-X---7-7--------------------5--X-X----5-5----3--X-X----3-3|

Who I am. But you don't. You got me, on my toes

3.     (strum on this part below)
e |------------------------------------------------------------------|
B |------------------------------------------------------------------|
G |-------------------7-------7-7------------------------------------|
D |-----9------9-9----7-------7-7----7--------7-7----5--------5-5----|
A |-----9------9-9----5-------5-5----7--------7-7----5--------5-5----|
E |-----7------7-7-------------------5--------5-5----3--------3-3----|(2x)

I'm sinking into the lava. And I can't keep from going under
And you turn the temperature hotter
And I'm burning up, burning up. For you baby


e |-------------------------------------------------------------------|
B |-------------------------------------------------------------------|
G |---------------------7--X-X---7-7----------------------------------|
D |-----9--X-X---9-9----7--X-X---7-7----7--X-X----7-7----5--X-X----5-5|
A |-----9--X-X---9-9----5--X-X---5-5----7--X-X----7-7----5--X-X----5-5|
E |-----7--X-X---7-7--------------------5--X-X----5-5----3--X-X----3-3|


e |-------------------------------------------------------------------|
B |-------------------------------------------------------------------|
G |---------------------7--X-X---7-7----------------------------------|
D |-----9--X-X---9-9----7--X-X---7-7----7--X-X----7-7----5--X-X----5-5|
A |-----9--X-X---9-9----5--X-X---5-5----7--X-X----7-7----5--X-X----5-5|
E |-----7--X-X---7-7--------------------5--X-X----5-5----3--X-X----3-3|(2x)

  1.I fell (I fell). So fast (so fast). Can't hold myself, Back

  2.High heels (high heels). Red dress (red dress). All by yourself, gotta
    impress

e |------------------------------------------------------------------|
B |------------------------------------------------------------------|
G |-------------------7-------7-7------------------------------------|
D |-----9------9-9----7-------7-7----7--------7-7----5--------5-5----|
A |-----9------9-9----5-------5-5----7--------7-7----5--------5-5----|
E |-----7------7-7-------------------5--------5-5----3--------3-3----|(2x)

I'm sinking into the lava. And I can't keep from going under
And you turn the temperature hotter
And I'm burning up, burning up. For you baby

e |------------------------------------------------------------------|
B |------------------------------------------------------------------|
G |------------------------------------------------------------------|
D |-----5--X-X--5-5----7--X-X--7-7----9--X--7--X--5------------------|
A |-----5--X-X--5-5----7--X-X--7-7----9--X--7--X--5------------------|
E |-----3--X-X--3-3----5--X-X--5-5----7--X--5--X--3------------------|(2x)

Walk in the room. All I can see is you.You're staring me down
I know you feel it tooooo


After this section you come to a stop, and then they sing without music. Then they go 
back to the section below and repeat it 6 times. and then the song ends.

(strum on this part below)
e |------------------------------------------------------------------|
B |------------------------------------------------------------------|
G |-------------------7-------7-7------------------------------------|
D |-----9------9-9----7-------7-7----7--------7-7----5--------5-5----|
A |-----9------9-9----5-------5-5----7--------7-7----5--------5-5----|
E |-----7------7-7-------------------5--------5-5----3--------3-3----|(6x)

I'm sinking into the lava. And I can't keep from going under
And you turn the temperature hotter
And I'm burning up, burning up. For you baby

And that is the end of the song. and i'm a girl not a boy.
Suggest correction
Give kudos to tab author, rate the tab!
1 2 3 4 5
comments
print report bad tab
6 comments total. Showing first comments.
+1 reply
*greentea* 10 Sep 13, 2008 04:06 PM

not exactly correct. and its SLIPPING into the lava!!!but good try ne way

0 reply
*greentea* 10 Sep 13, 2008 04:08 PM

u hav the whole chorus wrong, btw, its
i'm slipping into the lava and i'm-a tryin-a keep from goin under
baby who turn the temperature hotter cuz i'm burinin up, burnin up for you baby.

-1 reply
ajcleminshaw 10 Nov 08, 2008 05:41 PM

How did they tune it? you didn't necessarily tab it completely if you didn't tell us how they are tuned.

guest
You may want to rate the tab now too:
select rating
Wanna post a correction for this tab? Suggest correction