Oops, an error
Loading. Please wait.

Burnin Up Chords

version 5
version 5
3,812 views 1 this week
no commentswrite comment
1 2 3 4 5
please rate
add to favorites
launch autoscroll
font size
0
reset
transpose
0
reset
display chords
guitar tuner
Autoscroll
slow
fast
+/-
esc
set tempo
stop
Help us to improve Ultimate-Guitar.com Take our survey!
×
Author
Difficulty
novice
I have only joined UG for like 3 days so far my first tab is still being processed. 
I think This tab is 100% correct and if you don't agree then give me an e-mail at 
sergioconverse1@hotmail.com



This is the guitar riff that is played in the chorus. 
I am too lazy to be exact with the rhythm so your on your own.

Intro:
          Bm                D                        
e|--7-7--7-7--7-7--10-10--10-10--10-10--|
B|--7-7--7-7--7-7--10-10--10-10--10-10--|
G|--7-7--7-7--7-7--11-11--11-11--11-11--|
D|--------------------------------------|
A|--------------------------------------|
E|--------------------------------------|
             A                 G  
e|--9--9---9--9---9--9---7-7--7-7--7-7--| 
B|--10-10--10-10--10-10--8-8--8-8--8-8--|
G|--9--9---9--9---9--9---7-7--7-7--7-7--|
D|--------------------------------------|
A|--------------------------------------|
E|--------------------------------------|


Verse 1:
      Bm         D        A         G
e|-------------------------------------------|
B|-------------------------------------------|
G|--4---4-4---7---7-7------------------------|    This is played 
D|--4---4-4---7---7-7---7---7-7---5---5-5----|    in the verse
A|--2---2-2---5---5-5---7---7-7---5---5-5----|
E|----------------------5---5-5---3---3-3----|


(Verse 1) 
     Bm
I'm hot
          D 
You're cold
           A 
You go around
           G 
Like you know 
     Bm
Who I am 
           D
But you don't
         A              G
You've got me, on my toes 

(Chorus)
Bm                  D
I'm slipping into the lava 
A                   G
And I'm trying to keep from going under 
Baby
Bm                  D
You turn the temperature hotter 
A
Cause I'm burning up 
G
Burning up 
For you baby 

Interlude:
      Bm         D        A         G
e|-------------------------------------------|
B|-------------------------------------------|
G|--4---4-4---7---7-7------------------------|    
D|--4---4-4---7---7-7---7---7-7---5---5-5----|    
A|--2---2-2---5---5-5---7---7-7---5---5-5----|
E|----------------------5---5-5---3---3-3----|

Come On Girl 

(Verse 2)
Bm 
I fell(I fell)
D 
So fast(so fast)
A 
can't hold 
G
Myself, back 
Bm
High heels(high heels) 
D
Red dress(red dress) 
A
All by yourself 
G
Gotta catch my breath 


(Chorus)
Bm                  D
I'm slipping into the lava 
A                   G
And I'm trying to keep from going under 
Baby
Bm                  D
You turn the temperature hotter 
               A
Cause I'm burning up 
       G
Burning up 
For you baby 

(Bridge)

e|-------------------------------------------------|
B|-------------------------------------------------|
G|-------------------------------------------------|
D|---5--5-5--7--7-7--9--7--5---5--5-5--7--7-7--9---|
A|---5--5-5--7--7-7--9--7--5---5--5-5--7--7-7--9---|
E|---3--3-3--5--5-5--7--5--3---3--3-3--5--5-5--7---|


(Bridge)
G           A
I walk in the room  
          Bm  A  G       
All I can see is you 
G          A
You're staring me down 
        Bm            C
I know you feel it too 

(Chorus)
Bm                  D
I'm slipping into the lava 
A                   G
And I'm trying to keep from going under 
Baby
Bm                  D
You turn the temperature hotter 
               A
Cause I'm burning up 
       G
Burning up 
For you baby 

XSame Chords For the rest of the songX

I'm slipping into the lava 
And I'm trying keep from going under 
Baby 
You turn the temperature hotter 
Cause I'm burning up 
Burning up 
For you baby 
(Bridge) 
We're burning up In this place tonight 
You brothers sing it loud(and we're feeling right) 
Get up and dance don't try to fight 
Big Rob for real (and that's no lie) 
stop drop and roll (and touch the floor) 
(To keep from burning up) 
More and More 
I got J.B with me(we're it laying down) 
Come on boys 
let's bring the chorus around 

(Chrous) 
I'm slipping into the lava (Burning Up, Burning Up) 
And I'm trying keep from going under(Yeah) 
Baby 
You turn the temperature hotter (Come On) 
I'm burning up 
Burning up 
for you baby 
I'm burning up 
Burning up 
For you baby  


The End!!  I hope You liked it once again any ?'s
or comments give me an e-mail at sergioconverse1@hotmail.com
Suggest correction
Give kudos to tab author, rate the tab!
1 2 3 4 5
comments
print report bad tab
guest
You may want to rate the tab now too:
select rating
Wanna post a correction for this tab? Suggest correction