Oops, an error
Loading. Please wait.

Critical Tab

version 1
version 1

Whole song

Interactive

16,846 views 1 this week
no commentswrite comment
1 2 3 4 5
x 7
add to favorites
launch autoscroll
font size
0
reset
how to read this tab
guitar tuner
Autoscroll
slow
fast
+/-
esc
set tempo
stop
Help us to improve Ultimate-Guitar.com Take our survey!
×
Author
Difficulty
Capo
novice
3rd fret
                        Critical - Jonas Brothers

This is hands-down my FAVOURITE song on the whole soundtrack!
It's just, ugh, perfect!
This SHOULD be pretty accurate, but I've never tabbed from a piano before, so...
Leave a comment, if you have any corrections :D

***CAPO 3RD***

(Chords in brackets are optional. For example, if you're playing it as power
chords, then I would recommend to play these chords. Otherwise, they're unnecessary.)

Intro:
         C
e|----------------|
B|------1------1--|
G|----0------0----|
D|----------------| x2
A|--3------3------|
E|----------------|

Verse:
         C      (C/B)      Bb       (Bb/A)      F       (F/E)       C
e|----------------------------------------------------------------------------------|
B|----1----1----1----1----1----1----1----1----1----1----1----1----1----1----1----1--|
G|---0----0----0----0----0----0----0----0----0----0----0----0----0----0----0----0---|
D|----------------------------------------------------------------------------------| x2
A|--3----3----2----2----1----1----0----0------------------------3----3----3----3----|
E|------------------------------------------1----1----0----0------------------------|

Chorus:
C Am G Em x4

Post-chorus:
         C
e|----------------|
B|------1------1--|
G|----0------0----|
D|----------------| x2
A|--3------3------|
E|----------------|

Verse:
         C      (C/B)      Bb       (Bb/A)      F       (F/E)       C
e|----------------------------------------------------------------------------------|
B|----1----1----1----1----1----1----1----1----1----1----1----1----1----1----1----1--|
G|---0----0----0----0----3----3----2----2----0----0----0----0----0----0----0----0---|
D|----------------------------------------------------------------------------------| x2
A|--3----3----2----2----1----1----0----0------------------------3----3----3----3----|
E|------------------------------------------1----1----0----0------------------------|

Chorus:
C Am G Em x4

Bridge:
C Am G Em x2

Then:
      C        Am       G        Em
e|--------------------------------------|
B|--------1--------1--------------------|
G|------0--------2----------0--------0--|
D|----2--------2----------0--------2----|
A|--3--------0----------2--------2------|
E|--------------------3--------0--------|

Chorus:
C Am G Em x5

Outro:
        C
e|----------------|
B|------1------1--|
G|----0------0----|
D|----------------| x2
A|--3------3------|
E|----------------|
Suggest correction
comments
print report bad tab
guest
You may want to rate the tab now too:
select rating
Wanna post a correction for this tab? Suggest correction