Oops, an error
Loading. Please wait.

Dont Speak Tab

version 1
version 1

Whole song

Interactive

4,082 views 3 this week
4 commentsread comments
1 2 3 4 5
excellent!
x 2
add to favorites
launch autoscroll
font size
0
reset
how to read this tab
guitar tuner
Tab Pro tools
  • play this tab
  • loop segment
  • change instrument
  • show fretboard
  • metronome
Autoscroll
slow
fast
+/-
esc
set tempo
stop
Contributor
Difficulty
----------------------------------------------------------------------------
                             Don't Speak - Jonas Brothers
----------------------------------------------------------------------------

Tabbed by:XxGuitarZer0xx

My Email:Spongebobs400s@hotmail.com

Tuning:Standard

INTRO - Just strum each chord and let it ring. Chords = D to C to G
e|------------|
B|------------|
G|-7~--5~-----|
D|-7~--5~--5~-|
A|-5~--3~--5~-|
E|---------3~-|

VERSES - Strum each chord once and let it ring.
e|-----2~--2~------3~--3~---------|
B|-7~--2~--3~--5~--3~--3~--7~--2~-|
G|-7~--2~--4~--5~--4~--3~--7~--2~-|
D|-7~--4~--4~--5~--5~--5~--7~--2~-|
A|-5~--4~--2~--3~--5~--5~--5~--0~-|
E|-----2~----------3~--3~---------|

Another way to play the verse is this...

I think this is the bass line or palm muted guitar... Can't tell really
e|-----------------------------------------------------------------------|
B|-----------------------------------------------------------------------|
G|-----------------------------------------------------------------------|
D|-----------------------------------------------------------------------|
A|-555-55-555-55---------------222-22-222-22-333-33-333-33---------------|
E|---------------222-22-222-22-----------------------------333-33-333-33-|

Continued underneath

e|-------------------------------------------|
B|-------------------------------------------|
G|-------------------------------------------|
D|-------------------------------------------|
A|---------------555-55-555-55-000-00-000-00-|
E|-333-33-333-33-----------------------------|

CHORUS - I strum each chord til next chord change. (you can do whatever you want 
Hold the chord... doesn't matter.
e|------------------------------------|
B|------------------------------------|
G|-7777777777777777-55555555----------|
D|-7777777777777777-55555555-55555555-|
A|-5555555555555555-33333333-55555555-|
E|---------------------------33333333-|

BRIDGE - Same as intro - Strum each chord once let it ring.
e|------------|
B|------------|
G|-7~--5~-----|
D|-7~--5~--5~-|x2
A|-5~--3~--5~-|
E|---------3~-|

SOLO Part 1 - Figured this out by ear. So don't get mad if 1 note is wrong... if that!
e|-----12-14--------------------|
B|-/15-------15--10/17-13-------|
G|------------------------14-12-|
D|------------------------------|
A|------------------------------|
E|------------------------------|

Continued Underneath

SOLO Part 2 - Comes in right after part 1!
e|-----12-14--------------14-15-17~--14-15-17-15-17~-19/21\-|
B|-/15-------15--10/17-13-----------------------------------|
G|----------------------------------------------------------|
D|----------------------------------------------------------|
A|----------------------------------------------------------|
E|----------------------------------------------------------|

OUTRO Part 1 - Both guitars
e|------------------------------------|
B|------------------------------------|
G|-7777777777777777-55555555----------|
D|-7777777777777777-55555555-55555555-|x2
A|-5555555555555555-33333333-55555555-|
E|---------------------------33333333-|

Then 1 guitar keeps playing the part 1 part while 1 guitar plays this

OUTRO Part 2 - Just 1 guitar
e|-----12-14--------------------|
B|-/15-------15--10/17-13-------|
G|------------------------14-12-|
D|------------------------------|
A|------------------------------|
E|------------------------------|

Finishing note = D = D CHORD!

so 15 on the B string is fine to finish with. Maybe some vibrato

but D is the first chord in the song and that is the last chord... who would guess that!

Copyright - Xxguitarzer0xX - (me)

100% correct tab... your welcome!
comments
We did not receive enough feedback on this tab! Please rate:
print report bad tab
1 2 3 4 5
4 comments total. Showing first comments.
0 reply
jordyfallacy wrote on July 9 2009, 06:41 pm

why even post this shit?

+1 reply
xxGUITARZER0xx wrote on July 9 2009, 08:46 pm

For people just starting to play the guitar and want to play something easy!

0 reply
bballgirlsl981 wrote on July 9 2009, 08:52 pm

it should be 13 instead of 11 during the solo... otherwise great tab!

I want to post or [tab]
guest
You may want to rate the tab now too:
select rating
Please do not post tabs as comments. Select "correction" instead!