Oops, an error
Loading. Please wait.

Dont Speak Tab

version 2
version 2

Whole song

Interactive

1,220 views 1 this week
1 commentread comment
1 2 3 4 5
poor
x 2
add to favorites
launch autoscroll
font size
0
reset
how to read this tab
guitar tuner
Tab Pro tools
  • play this tab
  • loop segment
  • change instrument
  • show fretboard
  • metronome
Autoscroll
slow
fast
+/-
esc
set tempo
stop
Contributor
                        Don’t Speak – Jonas Brothers

I figured this out on an out of tune acoustic guitar,
so I have NO idea how accurate this is...
Leave a comment if you have any corrections :D

*RHYTHM GUITAR!: Strum and 'Chuck' to the rhythm of the lead guitar.*
*LEAD GUITAR!: Finger-plucking seems easier than picking the strings.*
*SOLO!: Sounds reasonably okay, there might be some slides missing.*

Intro:
Lead:
e|-------------------------------------|
B|-------------------------------------|
G|---7-7-7~---7--7-7~--5-5-5~----------|
D|--7--7-7~--7--7-7~--5--5-5~---5-5-5~-|
A|-5---5-5~-5---5-5~-3---3-3~--5--5-5~-|
E|----------------------------3---3-3~-|

Rhythm:
e|---------------------------------------------------------|
B|---------------------------------------------------------|
G|-7-7-7-7--7-7~-7-7-7-7--7-7~-5-5-5-5--5-5~---------------|
D|-7-7-7-7--7-7~-7-7-7-7--7-7~-5-5-5-5--5-5~-5-5-5-5--5-5~-|
A|-5-5-5-5--5-5~-5-5-5-5--5-5~-3-3-3-3--3-3~-5-5-5-5--5-5~-|
E|-------------------------------------------3-3-3-3--3-3~-|

Verse:
Lead:
e|-------------------------------------------------------|
B|-------------------------------------------------------|
G|---7-7-7~---7-7-7~---------------------4-4-4~---4-4-4~-|
D|--7--7-7~--7--7-7~---4-4-4~---4-4-4~--4--4-4~--4--4-4~-|
A|-5---5-5~-5---5-5~--4--4-4~--4--4-4~-2---2-2~-2---2-2~-|
E|-------------------2---2-2~-2---2-2~-------------------|

e|-------------------------------------------------------|
B|-------------------------------------------------------|
G|---5-5-5~---5-5-5~---------------------3-3-3~---3-3-3~-|
D|--5--5-5~--5--5-5~---5-5-5~---5-5-5~--5--5-5~--5--5-5~-|
A|-3---3-3~-3---3-3~--5--5-5~--5--5-5~-------------------|
E|-------------------3---3-3~-3---3-3~-3---3-3~-3---3-3--|

e|-------------------------------------|
B|-------------------------------------|
G|---7-7-7~---7-7-7~-------------------|
D|--7--7-7~--7--7-7~---7-7-7~---7-7-7~-|
A|-5---5-5~-5---5-5~--7--7-7~--7--7-7~-|
E|-------------------5---5-5~-5---5-5~-|

Rhythm:
e|--------------------------------------------------------------|
B|--------------------------------------------------------------|
G|-7~-7~---------4~-4~--5~-5~--4~-4~--3~-3~--7~-7~--------------|
D|-7~-7~--4~4~---4~-4~--5~-5~--5~-5~--5~-5~--7~-7~--7~-77777777-|
A|-5~-5~--4~-4~--2~-2~--3~-3~--5~-5~--5~-5~--5~-5~--7~-77777777-|
E|--------2~-2~----------------3~-3~--3~-3~---------5~-55555555-|

Chorus:
Lead:
e|-------------------------------------|
B|-------------------------------------|
G|---7-7-7~---7--7-7~--5-5-5~----------|
D|--7--7-7~--7--7-7~--5--5-5~---5-5-5~-| x2
A|-5---5-5~-5---5-5~-3---3-3~--5--5-5~-|
E|----------------------------3---3-3~-|

Rhythm:
e|---------------------------------------------------------|
B|---------------------------------------------------------|
G|-7-7-7-7--7-7~-7-7-7-7--7-7~-5-5-5-5--5-5~---------------|
D|-7-7-7-7--7-7~-7-7-7-7--7-7~-5-5-5-5--5-5~-5-5-5-5--5-5~-| x2
A|-5-5-5-5--5-5~-5-5-5-5--5-5~-3-3-3-3--3-3~-5-5-5-5--5-5~-|
E|-------------------------------------------3-3-3-3--3-3~-|

Verse:
Lead:
e|-------------------------------------------------------|
B|-------------------------------------------------------|
G|---7-7-7~---7-7-7~---------------------4-4-4~---4-4-4~-|
D|--7--7-7~--7--7-7~---4-4-4~---4-4-4~--4--4-4~--4--4-4~-|
A|-5---5-5~-5---5-5~--4--4-4~--4--4-4~-2---2-2~-2---2-2~-|
E|-------------------2---2-2~-2---2-2~-------------------|

e|-------------------------------------------------------|
B|-------------------------------------------------------|
G|---5-5-5~---5-5-5~---------------------3-3-3~---3-3-3~-|
D|--5--5-5~--5--5-5~---5-5-5~---5-5-5~--5--5-5~--5--5-5~-|
A|-3---3-3~-3---3-3~--5--5-5~--5--5-5~-------------------|
E|-------------------3---3-3~-3---3-3~-3---3-3~-3---3-3--|

e|-------------------------------------|
B|-------------------------------------|
G|---7-7-7~---7-7-7~-------------------|
D|--7--7-7~--7--7-7~---7-7-7~---7-7-7~-|
A|-5---5-5~-5---5-5~--7--7-7~--7--7-7~-|
E|-------------------5---5-5~-5---5-5~-|

Rhythm:
e|--------------------------------------------------------------|
B|--------------------------------------------------------------|
G|-7~-7~---------4~-4~--5~-5~--4~-4~--3~-3~--7~-7~--------------|
D|-7~-7~--4~4~---4~-4~--5~-5~--5~-5~--5~-5~--7~-7~--7~-77777777-|
A|-5~-5~--4~-4~--2~-2~--3~-3~--5~-5~--5~-5~--5~-5~--7~-77777777-|
E|--------2~-2~----------------3~-3~--3~-3~---------5~-55555555-|

Chorus:
Lead:
e|-------------------------------------|
B|-------------------------------------|
G|---7-7-7~---7--7-7~--5-5-5~----------|
D|--7--7-7~--7--7-7~--5--5-5~---5-5-5~-| x2
A|-5---5-5~-5---5-5~-3---3-3~--5--5-5~-|
E|----------------------------3---3-3~-|

Rhythm:
e|---------------------------------------------------------|
B|---------------------------------------------------------|
G|-7-7-7-7--7-7~-7-7-7-7--7-7~-5-5-5-5--5-5~---------------|
D|-7-7-7-7--7-7~-7-7-7-7--7-7~-5-5-5-5--5-5~-5-5-5-5--5-5~-| x2
A|-5-5-5-5--5-5~-5-5-5-5--5-5~-3-3-3-3--3-3~-5-5-5-5--5-5~-|
E|-------------------------------------------3-3-3-3--3-3~-|

Bridge:
Both:
e|-----------------------------------------------------------------|
B|-----------------------------------------------------------------|
G|-7-7-7-7-7-7-7-7-7-7-7-7-7-7-7-7-5-5-5-5-5-5-5-5-----------------|
D|-7-7-7-7-7-7-7-7-7-7-7-7-7-7-7-7-5-5-5-5-5-5-5-5-5-5-5-5-5-5-5-5-| x2
A|-5-5-5-5-5-5-5-5-5-5-5-5-5-5-5-5-3-3-3-3-3-3-3-3-5-5-5-5-5-5-5-5-|
E|-------------------------------------------------3-3-3-3-3-3-3-3-|

Lead:
e|-------------------------------------------------------------------------|
B|-------------------------------------------------------------------------|
G|---7-7-7~---7-7-7~---5-5-5~------------7-7-7~---7--7-7~--5-5-5~----------|
D|--7--7-7~--7--7-7~--5--5-5~---5-5-5~--7--7-7~--7--7-7~--5--5-5~-55555555-|
A|-5---5-5~-5---5-5~-3---3-3~--5--5-5~-5---5-5~-5---5-5~-3---3-3~-55555555-|
E|----------------------------3---3-3~----------------------------33333333-|

Rhythm:
e|---------------------------------------------------------|
B|---------------------------------------------------------|
G|-7-7-7-7--7-7~-7-7-7-7--7-7~-5-5-5-5--5-5~---------------|
D|-7-7-7-7--7-7~-7-7-7-7--7-7~-5-5-5-5--5-5~-5-5-5-5--5-5~-|
A|-5-5-5-5--5-5~-5-5-5-5--5-5~-3-3-3-3--3-3~-5-5-5-5--5-5~-|
E|-------------------------------------------3-3-3-3--3-3~-|

e|------------------------------------------------------------------|
B|------------------------------------------------------------------|
G|-7-7-7-7--7-7~-7-7-7-7--7-7~-5-5-5-5--5-5~------------------------|
D|-7-7-7-7--7-7~-7-7-7-7--7-7~-5-5-5-5--5-5~-5-5-5-5--5-5~-55555555-|
A|-5-5-5-5--5-5~-5-5-5-5--5-5~-3-3-3-3--3-3~-5-5-5-5--5-5~-55555555-|
E|-------------------------------------------3-3-3-3--3-3~-33333333-|

Solo:
e|--10-12-14--------12---------------12-14--------12----14-15-17~-|
B|-----------15--------11-10------10-------15--------11-----------|
G|---------------14----------12----------------14-----------------|
D|----------------------------------------------------------------|
A|----------------------------------------------------------------|
E|----------------------------------------------------------------|

e|-14-15-17-15-17~-------|
B|-----------------14/16-|
G|-----------------------|
D|-----------------------|
A|-----------------------|
E|-----------------------|

Chorus:
Lead:
e|-------------------------------------|
B|-------------------------------------|
G|---7-7-7~---7--7-7~--5-5-5~----------|
D|--7--7-7~--7--7-7~--5--5-5~---5-5-5~-| x2
A|-5---5-5~-5---5-5~-3---3-3~--5--5-5~-|
E|----------------------------3---3-3~-|

Rhythm:
e|---------------------------------------------------------|
B|---------------------------------------------------------|
G|-7-7-7-7--7-7~-7-7-7-7--7-7~-5-5-5-5--5-5~---------------|
D|-7-7-7-7--7-7~-7-7-7-7--7-7~-5-5-5-5--5-5~-5-5-5-5--5-5~-| x2
A|-5-5-5-5--5-5~-5-5-5-5--5-5~-3-3-3-3--3-3~-5-5-5-5--5-5~-|
E|-------------------------------------------3-3-3-3--3-3~-|

Outro:
Lead:
e|----------------------------------------------------------------|
B|----------------------------------------------------------------|
G|---7-7-7~---7-7-7~---5-5-5~------------7-7-7~---7-7-7~---5-5-5~-|
D|--7--7-7~--7--7-7~--5--5-5~---5-5-5~--7--7-7~--7--7-7~--5--5-5~-|
A|-5---5-5~-5---5-5~-3---3-3~--5--5-5~-5---5-5~-5---5-5~-3---3-3~-|
E|----------------------------3---3-3~----------------------------|

e|-------------|
B|-------------|
G|----------7~-|
D|-55555555-7~-| 
A|-55555555-5~-|
E|-33333333----|

Rhythm:
e|---------------------------------------------------------|
B|---------------------------------------------------------|
G|-7-7-7-7--7-7~-7-7-7-7--7-7~-5-5-5-5--5-5~---------------|
D|-7-7-7-7--7-7~-7-7-7-7--7-7~-5-5-5-5--5-5~-5-5-5-5--5-5~-|
A|-5-5-5-5--5-5~-5-5-5-5--5-5~-3-3-3-3--3-3~-5-5-5-5--5-5~-|
E|-------------------------------------------3-3-3-3--3-3~-|

e|----------------------------------------------------------------------|
B|----------------------------------------------------------------------|
G|-7-7-7-7--7-7~-7-7-7-7--7-7~-5-5-5-5--5-5~-------------------------7~-|
D|-7-7-7-7--7-7~-7-7-7-7--7-7~-5-5-5-5--5-5~-5-5-5-5--5-5~-55555555--7~-|
A|-5-5-5-5--5-5~-5-5-5-5--5-5~-3-3-3-3--3-3~-5-5-5-5--5-5~-55555555--5~-|
E|-------------------------------------------3-3-3-3--3-3~-33333333-----|

Solo:
e|--10-12-14--------12----------|
B|-----------15--------11-10----|
G|---------------14----------12-|
D|------------------------------|
A|------------------------------|
E|------------------------------|
comments
We did not receive enough feedback on this tab! Please rate:
print report bad tab
1 2 3 4 5
1 comment total.
0 reply
pizzamampff wrote on October 26 2009, 07:03 am

bad bad

I want to post or [tab]
guest
You may want to rate the tab now too:
select rating
Please do not post tabs as comments. Select "correction" instead!