Oops, an error
Loading. Please wait.

Fly With Me Tab

version 1
version 1

Whole song

Interactive

49,820 views 9 this week
6 commentsread comments
1 2 3 4 5
accurate
x 5
add to favorites
launch autoscroll
font size
0
reset
how to read this tab
guitar tuner
Tab Pro tools
  • play this tab
  • loop segment
  • change instrument
  • show fretboard
  • metronome
×
Best way to learn
"Fly With Me"
Autoscroll
slow
fast
+/-
esc
set tempo
stop
Contributor
Fly With Me - Jonas Brothers

**UPDATE: Finally figured out Nick's piano parts!**
Seems pretty darn accurate to me :D
Leave a comment if you have any corrections!

Intro:
Lead:
e|------------------|    e|------------------| 
B|------------------|    B|------------------|
G|-5-5-7-7-9-9-7-7--| x5 G|-5-5-5-5-4-4-4-4--| 
D|------------------|    D|------------------|
A|------------------|    A|------------------|
E|------------------|    E|------------------|

Rhythm:
e|---------------------|
B|---------------------|
G|-5~------------------|
D|-5~--5~--3~--7~--5~--|
A|-3~--5~--3~--7~--5~--|
E|-----3~--1~--5~--3~--|

Verse:
Lead:
e|------------------|    e|------------------|  ----
B|------------------|    B|------------------|      |
G|-5-5-7-7-9-9-7-7--| x3 G|-5-5-5-5-4-4-4-4--|      | x2
D|------------------|    D|------------------|      |
A|------------------|    A|------------------|      |
E|------------------|    E|------------------|  ----

Rhythm (optional):
e|---------------------|
B|---------------------|
G|-5~------------------|
D|-5~--5~--3~--7~--5~--| x2
A|-3~--5~--3~--7~--5~--|
E|-----3~--1~--5~--3~--|

Chorus:
Lead (optional):
e|------------------|    e|------------------|  ----
B|------------------|    B|------------------|      |
G|-5-5-7-7-9-9-7-7--| x3 G|-5-5-5-5-4-4-4-4--|      | x2
D|------------------|    D|------------------|      |
A|------------------|    A|------------------|      |
E|------------------|    E|------------------|  ----

Rhythm:
e|--------------------------------------|
B|--------------------------------------|
G|-55555555-----------------------------|
D|-55555555-55555555-33333333-7777-5555-|x2
A|-33333333-55555555-33333333-7777-5555-|
E|----------33333333-11111111-5555-3333-|

Post-Chorus:
e|------------------|    e|------------------|  ----
B|------------------|    B|------------------|      |
G|-5-5-7-7-9-9-7-7--| x3 G|-5-5-5-5-4-4-4-4--|      | x2
D|------------------|    D|------------------|      |
A|------------------|    A|------------------|      |
E|------------------|    E|------------------|  ----

e|---------------------|
B|---------------------|
G|-5~------------------|
D|-5~--5~--3~--7~--5~--|
A|-3~--5~--3~--7~--5~--|
E|-----3~--1~--5~--3~--|

Verse:
Lead:
e|-----------------------------------------------------------------|
B|-----------------------------------------------------------------|
G|-5-5-7-7-9-9-7-7-5-5-7-7-9-9-7-7-5-5-7-7-9-9-7-7-5-5-5-5-4-4-4-4-|
D|-----------------------------------------------------------------|
A|-----------------------------------------------------------------|
E|-----------------------------------------------------------------|
  [    Play during Palm Mute      ][     Play during strumming    ]

Rhythm:
e|--------------------------------------------------|
B|--------------------------------------------------|
G|-55555555-----------------------------------------|
D|-55555555-55555555-33333333-7777-5555-3~-7~-3~-5~-|
A|-33333333-55555555-33333333-7777-5555-3~-7~-3~-5~-|
E|----------33333333-11111111-5555-3333-1~-5~-1~-3~-|
   [   Palm Mute   ] [     Strum      ]

Chorus:
Lead (optional):
e|------------------|    e|------------------|  ----
B|------------------|    B|------------------|      |
G|-5-5-7-7-9-9-7-7--| x3 G|-5-5-5-5-4-4-4-4--|      | x2
D|------------------|    D|------------------|      |
A|------------------|    A|------------------|      |
E|------------------|    E|------------------|  ----

Rhythm:
e|--------------------------------------|
B|--------------------------------------|
G|-55555555-----------------------------|
D|-55555555-55555555-33333333-7777-5555-| x2
A|-33333333-55555555-33333333-7777-5555-|
E|----------33333333-11111111-5555-3333-|

Bridge:
e|----------------------------|
B-----------------------------|
G|-5~-------------------------|
D|-5~--5~--3~--7~--5~--7~--5~-| 
A|-3~--5~--3~--7~--5~--7~--5~-|
E|-----3~--1~--5~--3~--5~--3~-|

(Not too sure on this.)
e|-----------------------------------------------|
B|--------------------------1-0-1----------------|  
G|-----5-4-5------5-4-5---0----------5----4~-----|  
D|---5----------5-------------------5-----5~-----|  
A|-3--------------------------------------5~-----|  
E|------------3---------1---------5--------------|

Chorus:
Lead (optional):
e|------------------|    e|------------------|  ----
B|------------------|    B|------------------|      |
G|-5-5-7-7-9-9-7-7--| x3 G|-5-5-5-5-4-4-4-4--|      | x2
D|------------------|    D|------------------|      |
A|------------------|    A|------------------|      |
E|------------------|    E|------------------|  ----

Rhythm:
e|--------------------------------------|
B|--------------------------------------|
G|-77777777-----------------------------|
D|-77777777-77777777-55555555-9999-7777-| 
A|-55555555-77777777-55555555-9999-7777-|
E|----------55555555-33333333-7777-5555-|

Solo (Sounds alright to me):
Lead:
e|-----------------------------------------------------------------|
B|------------------7---10------------------------7--12------------|
G|-------7----7--9----------9b11r9~-----7---7--9--------9b11r9p7---|
D|----/9---9------------------------/9----9------------------------|
A|-7\------------------------------------------------------------9-|
E|-----------------------------------------------------------------|

e|----------------------------------------12b14r12~-|
B|--------------------------------------------------|
G|--------------------------7----9----11------------|
D|---7h9p7----------/7--9---------------------------|
A|----------9--7b9----------------------------------|
E|--------------------------------------------------|

Rhythm:
e|--------------------------------------|
B|--------------------------------------|
G|-77777777-----------------------------|
D|-77777777-77777777-55555555-9999-7777-| 
A|-55555555-77777777-55555555-9999-7777-|
E|----------55555555-33333333-7777-5555-|

Chorus:
e|--------------------x-----------------|
B|--------------------x-----------------|
G|-77777777-----------x-----------------|
D|-77777777-77777777--x--5555-9999-7777-| 
A|-55555555-77777777--x--5555-9999-7777-|
E|----------55555555--x--3333-7777-5555-|

e|------------------------------------------------------|
B|------------------------------------------------------|
G|-77777777---------------------------------------------|
D|-77777777-77777777-55555555-9999-7777-9999-7777-9~-7~-| 
A|-55555555-77777777-55555555-9999-7777-9999-7777-9~-7~-|
E|----------55555555-33333333-7777-5555-7777-5555-7~-5~-|

Outro:
e|-------------------------|
B|-------------------------|
G|--7-7-9-9-11-11-9-9--7~--|
D|---------------------7~--| 
A|---------------------5~--|
E|-------------------------|
comments
print report bad tab
6 comments total. Showing first comments.
0 reply
Jon4sLuv3r wrote on June 23 2009, 07:43 pm

e|---------------------------------------|
B|---------------------------------------|
G|-------6666--7777-5555---------5~------|
D|--9999-7777--7777-7777--5~~----7~------|
A|--9999-7777--5555-7777--5~~----7~------|
E|--7777-5555-------5555--3~~----5~------|
so won't you fllllllyyy fllyyyyy flllyyyyyyyyyyyy

wiiithhh

pluck pluck pluck--strum
e|-------------------------|
B|-------------------------|
G|--7-7-9-9-11-11-9-9--7---|
D|---------------------5---|
A|--5-5-7-7-9--9--7-7--5---|
E|-------------------------|
me.

0 reply
Jon4sLuv3r wrote on June 23 2009, 07:45 pm

wait hey if you use that correction could you give me credit pleaseee

0 reply
MickMarsSiXX wrote on July 4 2009, 01:51 am

Too get the harm in the intro Hit Natural Harmonic on G String 5th fret and turn up volume slowly. sounds perfect

I want to post or [tab]
guest
You may want to rate the tab now too:
select rating
Please do not post tabs as comments. Select "correction" instead!